rock
 
|tablatures   |lyrics   |discussion forums   |more tabs @ XGuitar.com

Pearl Jam tabs

Low Light guitar chords

Date: Wed, 29 Apr 1998 21:56:08 -0400
From: Pat 
Subject: p/pearl_jam/low_light.crd

Lowlight by Pearl Jamfrom the album 'Yield'

Transcribed by Pat Giles (pgiles@ntl.sympatico.ca)

Standard tuning - low to high - EADGBE

Chords:

G: (320033)
C: (X32033)
B: (X20033)
Em:(022000)
D: (X00232)
A: (X02233) (I know this isn't a real A; I'm not sure what it's called)

Intro:

  (C B G F#) <--- this fill is played throughout song
                  (somtimes without 'G' note)
E:-----------3--------------------
B:-----------3--------------------
G:-0-0-0-0---0--------------------
D:-2-0-0-0---0--------------------   play 3 times
A:-3-2-X-X---2--------------------
E:-----3-2---3--------------------

Em     C    G    (C  B  G  F#)
Clouds roll by
G                          (C  B  F#)
Healing is what they say
G                  (C  B  G  F#)
Or is just my way
Em   C     G
Wind blows by
D     Em
Low...light
C      G
Side...tracked
D     Em
Low...light
      C   B  A             C   B   D
Can't see my tracks, yours sit way back

G                       (C  B  F#)
Can't be here all alone
G                       (C  B  G  F#)
Clear a path to my home
Em    C    G      (C  B  G  F#)
Blood runs dry
G                                (C  B  F#)
Books and jealousy, tell me why
G                 (C  B  F#)
I will feel calm
Em     C     G
Voice blows by
D     Em
Low...light
C     G
Car...crash
D     Em
Low...light
     C    B  A          C      B  D
They wear my mask, your first, my last

Bridge:

   G                          (C  B  F#)
E:------------------------------------------
B:------------------------------------------
G:-4h5-4----------4h5-4-------/9--7--\4-----
D:-------5-4-5-----------5-4----------------
A:------------------------------------------
E:------------------------------------------
   G                          (C  B  F#)
E:------------------------------------------
B:------------------------------------------
G:-4h5-4----------4h5-4-------/9--7--\4-----
D:-------5-4-5-----------5-4----------------
A:------------------------------------------
E:------------------------------------------
   E    C         G   (B  C B) G
E:------------------------------------------
B:/8---8p7----------------------------------
G:---------9--7-9-7---/4-/5-4--0------------
D:------------------------------------------
A:------------------------------------------
E:------------------------------------------

Em    C    G     (C  B  F#)
Voice goes by
G                             (C  B  F#)
Two birds is what they'll see
G                           (C  B  F#)
Getting lost upon their way
Em    C     G
Wind rolls by
D     Em
Low...light
C     G
I ... sigh
D     Em     C   B
Low...light

D          Em
I need the light
     C    B  A        C      B      A
I'll find my way from wrong, what's real?
    C     B D
The dream I see...

fade out on 'D'
  development and support by
dmitry ivanov