rock
 
|tablatures   |lyrics   |discussion forums   |more tabs @ XGuitar.com

Pearl Jam tabs

Leash bass tab

PEARL JAM "LEASH" -BASS TAB
--------------------
tunned normally

verse
|----|---------|
|----|---------|
|-9\-|-2-2-----|
|----|-----2-4-| 

With this variation played
  
|-----------|
|-----------|
|-2-2-2/5---|
|---------4-| 

The run leading up to the chorus

|-----------------|
|---------5-6-5---|
|-2-2-3-4-------3-|
|-----------------| 

chorus
|-----------------|-----------------|
|-----------------|-3-3-3-3-3-3-3-3-|
|-3-3-3-3-3-3-3-3-|-----------------|
|-----------------|-----------------|

2nd verse
|-----------|
|---3-------|
|-3---6-2-3-|
|-----------|
 h = hammeron
 p = pulloff
 ~ = vibrato
 / = slide up
 \ = slide down
(X)= hold note (let ring)

Tabbed by Mark Linwood

Hint suggesstions or comments to (Rlinwood@powerup.com.au)
I will reply to all emails
  development and support by
dmitry ivanov