rock
 
|tablatures   |lyrics   |discussion forums   |more tabs @ XGuitar.com

Pearl Jam tabs

Last Kiss guitar tab

PEARL JAM 
LAST KISS  
CHRIS LOVE  (  CHRISRCLOVE@HOTMAIL.COM   )

THIS IS THE LEAD PART TO THE SONG

E---------3---------------0-------------------------2--0---
B-------3----3-0--------0---0-0-----------1^0-------------3
G-----0---------------0-----------------0--------2---------
D---0---------------2----------------2---------0-----------       
A---------------------------------3------------------------
E-3---------------0----------------------------------------   

"OH WHERE OH WHERE CAN MY BABY BE THE LORD TOOK HER AWAY FROM ME"    

E----3-------------------0------------------------------2--------3--3---
B-------3---0---------0--------------------1---1--------3--3-----3--3---
G-------0-----------0--------0--0-----0----0---0-----2--------0--0--0---
D-----------------2---------------------2--2---2--0--------------0--0---
A-----------------------------------3----------------------------X--X---
E-3------------0-------------------------------------------------3--3---

"SHES GONE TO HEAVEN SO I GOT TO BE GOOD SO I CAN SEE MY BABY WHEN I
LEAVE THIS WORLD"


THIS OVER AND OVER AGIAN WHITH MINOR CHANGES 


CHRIS ( CHRISRCLOVE@HOTMAIL.COM  )

HI LIZ!!!!
  development and support by
dmitry ivanov