rock
 
|tablatures   |lyrics   |discussion forums   |more tabs @ XGuitar.com

Pearl Jam tabs

Last Exit bass tab

the following song are by Pearl Jam off "Vitology". All songs tabbed by Zeekford

last exit

first there's an improve into, then drums, guitar blah blah blah, O yes then
bass!

  Main line     variations
G|-------------|---------------|-------5-5-4----|
D|-------------|---------------|-------------7\-|
A|-\-3-2-0-3-2-|-3-2-0-3-3-2-3-|-3-2-0----------|
E|-------------|---------------|----------------|

the slide is only the intro, the rest of the verses play w/o

chorus
into chorus  chorus                    other variations are used
G|---------|------------------------------------|
D|---------|-3-2-2-2-2-----0--3-2-2-------------|
A|-3-3-0-2-|-----------2-3----------2-/14\-7\-2-|
E|---------|------------------------------------|

during solo, play verse, then chorus, then there's this thing

G|---------------------------------|----------|
D|---------------------------------|----------|
A|-3-3-3-3-3-3-3-3-2-2-2-2-2-2-2-2-|-3--3-1-0-|
E|---------------------------------|----------|

then verse is the outro

there U go. That's all of Vitology.  I hope U like it. Send Your comments to:
zeekford@capecod.net
  development and support by
dmitry ivanov