rock
 
|tablatures   |lyrics   |discussion forums   |more tabs @ XGuitar.com

Pearl Jam tabs

Indifference guitar tab

Author/Artist: Stone Gossard
Title: Indifference Lead
Album: Vs.
Transcribed by: Chris Wilson
Email: yokel@zip.com.au

(04/08/99)

-|---------------------------------|---------------------------------------|--
-|--17--15-------------------------|---------------------------------------|--
-|---------16--14------------------|---------------------------------------|--
-|----------------16h17-17/19--17--|---------------------------------------|--
-|---------------------------------|---------------------------------------|--
-|---------------------------------|---------------------------------------|--
                 2x                                                           

-|--------------15-----------------|---------------------------------------|--
-|-----17p15----------17p15--------|-----15--17----------------------------|--
-|--16-------16----16-------16-16--|--16-----------------------------------|--
-|---------------------------------|---------------------------------------|--
-|---------------------------------|---------------------------------------|--
-|---------------------------------|---------------------------------------|--
                 2x                                                           

-|--------------15-----------------|---------------------------------------|--
-|-----17p15----------17p15--------|-----15--17--17b19r17p15-17------------|--
-|--16-------16----16-------16-16--|--16-----------------------------------|--
-|---------------------------------|---------------------------------------|--
-|---------------------------------|---------------------------------------|--
-|---------------------------------|---------------------------------------|--
                 2x                                                           

-|---------------------------------|---------------------------------------|--
-|--17--15-------------------------|---------------------------------------|--
-|---------16--14------------------|---------------------------------------|--
-|----------------16h17-17/19--17--|---------------------------------------|--
-|---------------------------------|---------------------------------------|--
-|---------------------------------|---------------------------------------|--
                 2x                                                           

-|--------------15-----------------|---------------------------------------|--
-|-----17p15----------17p15--------|-----15--17----------------------------|--
-|--16-------16----16-------16-16--|--16-----------------------------------|--
-|---------------------------------|---------------------------------------|--
-|---------------------------------|---------------------------------------|--
-|---------------------------------|---------------------------------------|--
                 2x                                                           

-|--------------15-----------------|---------------------------------------|--
-|-----17p15----------17p15--------|-----15--17--17b19r17p15-17------------|--
-|--16-------16----16-------16-16--|--16-----------------------------------|--
-|---------------------------------|---------------------------------------|--
-|---------------------------------|---------------------------------------|--
-|---------------------------------|---------------------------------------|--
                 2x                                                           

-|---------------------------------|---------------------------------------|--
-|--17--15-------------------------|--17--15-------------------------------|--
-|---------16--14------------------|---------16--14------------------------|--
-|----------------16h17-17/19--17--|----------------16h17-17/19--17-16\14--|--
-|---------------------------------|---------------------------------------|--
-|---------------------------------|---------------------------------------|--
                                                                              

-|---------------------------------|--------15-------15-------15-------15--|--
-|---------------------------------|-----12-------12-------12-------12-----|--
-|--------------12/14--vvvvvvv-----|--14-------14-------14-------14--------|--
-|--12h14/16/17--------------------|---------------------------------------|--
-|---------------------------------|---------------------------------------|--
-|---------------------------------|---------------------------------------|--
                                                                              

-|--------15-------15--|--15-------15--------15-------15--------|-------------
-|-----12-------12-----|-----12-------12--------12-------12-----|-------------
-|--14-------14--------|--------14-------14--------14-------14--|-------------
-|---------------------|----------------------------------------|-------------
-|---------------------|----------------------------------------|-------------
-|---------------------|----------------------------------------|-------------
                                                                              

-|--15p12--|--12----12----12----12----12----12----12----12----12-----|--------
-|---------|-----12----12----12----12----12----12----12----12----12--|--------
-|---------|---------------------------------------------------------|--------
-|---------|---------------------------------------------------------|--------
-|---------|---------------------------------------------------------|--------
-|---------|---------------------------------------------------------|--------
     35x                                                        fade....      

  development and support by
dmitry ivanov