rock
 
|tablatures   |lyrics   |discussion forums   |more tabs @ XGuitar.com

Pearl Jam tabs

Indifference bass tab

"Indifference"
           by Pearl Jam from the album "Vs."
        Tabbed by Dave Miller (dwm3@po.cwru.edu)  



This is a nice melodic little song.  It's very easy
to play (and very easy to tab, I might add).  I'm not
sure of the correct notation but the "5|6" notation
in the tab represents lightly pressing on the string
above the line to separate the 5th and 6th frets.
...just like when tuning.  It's a neat little sound
that comes in very handy for Mr. Ament in this 
song.


     Verse                                                                      
||-------5|6-----------------7|8--------------
||*------------5|6-----------------7|8--------
||*---7------------------5--------------------
||--7-----------------5-----------------------
    I will light the match...                                                                                

     Chorus                                                                     
||--------5|6--------------7|8---------------5|6------------5|6
||*------------5|6--------------7|8-------------5|6-------------5|6
||*----7----------------5-----------------7--------------7------
||--7----------------5-----------------7---------------7---------
   How much difference...
  development and support by
dmitry ivanov