rock
 
|tablatures   |lyrics   |discussion forums   |more tabs @ XGuitar.com

Pearl Jam tabs

Immortality bass tab

the following song are by Pearl Jam off "Vitology". All songs tabbed by Zeekford

Immortality

guitar intro
verse            variation
G|-------------|-----------------------|
D|-------------|-----------------------|
A|-7--7\-5--5/-|---7--7-7-7-\-5--5-5-5-|
E|-------------|-0---------------------|

Chorus
G|----------|----------------|-------------|----------------|
D|----------|----------------|-------------|----------------|
A|-3-3-3/-7-|-3-3-3-3-3-/-7\-|-3-3-3-3/-0\-|-12---3-0-3/-12-|
E|----------|----------------|-------------|----------------|

Interlude- first part is the verse, then it speeds up
G|------------------|----------------|-----------------------------------------|
D|------------------|----------------|-----------------------------------------|
A|-7-7-7-7\-5-5-5-5-|-7-7-7-7\-5-5-5-|-7-7-7-7/-9-9-9-9/-12-12-12-12/-19-19-19\|
E|------------------|----------------|-----------------------------------------|

G|------------|
D|-----------*|
A|-0--/12\-0-*|
E|------------|

Outro (it's all A)
here's one way

G|-------14--|-----14----|---------|
D|---/12-----|-----------|---------|
A|-0---------|---0----12-|-0---/12-|
E|-----------|-----------|---------|

================================================================================
there U go. That's all of Vitology.  I hope U like it. Send Your comments to:
zeekford@capecod.net
  development and support by
dmitry ivanov