rock
 
|tablatures   |lyrics   |discussion forums   |more tabs @ XGuitar.com

Pearl Jam tabs

Hey Foxymophandlemama, That's Me bass tab

the following song are by Pearl Jam off "Vitology". All songs tabbed by Zeekford

hey foxymophandlemama, that's me


bass doesn't come in until 5:31
G|---------------|--------------------------|
D|---------------|--------------------------|
A|---3--3--------|---3--3-------------------|
E|-5------3--3-5-|-5------3--3-5-5-0-5--5-5-|

At 6:27
G|-----------------------------|
D|---------------7--7-7--7-7-7-|
A|---3--3------5---------------|
E|-5------3--3-----------------|

At 6:44
G|------------------------|
D|------5--5-5-5-5-5-5----|
A|---3------------------0-|
E|-5----------------------|

last line
G|----------------------------------------|
D|----------------------------------------|
A|---3--3---------------------------------|
E|-5------3--3-5-5-5-5-/-7-7-7-7-\5-5-5-5-|

and there's left over guitar effects and the kids final words about killing
himself.

there U go. That's all of Vitology.  I hope U like it. Send Your comments to:
zeekford@capecod.net
  development and support by
dmitry ivanov