rock
 
|tablatures   |lyrics   |discussion forums   |more tabs @ XGuitar.com

Pearl Jam tabs

Happy When Im Crying bass tab

Happy When I'm Crying
Pearl Jam
Tabbed by Nick Key (nkey@ionet.net)

Intro

Fig. 1 4x
------------|
---2-0-2----| 
-0-------3--|
------------|

Verse:

Fig. 1 4x, then:

--------------|
--------------|
-3--3--3--3---|
--------------|

Play verse 2x, then:

Chorus:
Fig. 2 - 9x
------------| |---|
-7-7-7-7-5--| |-7-|
------------| |---|
------------| |---|

Play verse two (2) more times, then chorus again.

After pause, play fig. 1 eight (8) times

Play verse two (2) times again, then the chorus.

Outro:

Play fig. 2 13 times and end on A.
  development and support by
dmitry ivanov