rock
 
|tablatures   |lyrics   |discussion forums   |more tabs @ XGuitar.com

Pearl Jam tabs

Hail, Hail guitar tab

Hail, Hail
by 
Pearl Jam

Off the recently released album, No Code

Written by : Stone Gossard, Eddie Vedder, Jeff Ament, Mike McCready 

The song and this tab are in standard tuning. This isn^t a very hard song to play, basically patterns with variations.

Introduction/Chorus

E|---------------------------------------------------------------------------------------------------------|
B|---------------------------------------------------------------------------------------------------------|
G|--7------------6----7---------------------------------7------------6-----7----------------------------|
D|--7-----7-----6-----7-----5-----7-----10-----8-----7-----7------6-----7-----5-----7----10---8---|
A|--5-----7-----4-----5-----5-----7-----10-----8-----5-----7------4-----5-----5-----7----10---8---|
E|---------5------------------3-----5-----8------6------------5-------------------3-----5----8----6---|

Verse 

E|---------------------------------------------------------------------------------------------|
B|---------------------------------------------------------------------------------------------|
G|---------------------------------------------------------------------------------------------|
D|----5----5---5---5---5---5---5---5---8--8--8--5--5--5--5--5--5--5--5--8--8--8------|
A|----5----5---5---5---5---5---5---5---8--8--8--5--5--5--5--5--5--5--5--8--8--8------|
E|----3----3---3---3---3---3---3---3---6--6--6--3--3--3--3--3--3--3--3--6--6--6------|
								
E|------------------------------------------------------------------------------------------------|
B|------------------------------------------------------------------------------------------------|
G|------------------------------------------------------------------------------------------------|
D|----5--5--5--8--8--8--8--8--8--8--8--8--5--5--5--8--8--8--8--8--8--8--8--10-10-10-|
A|----5--5--5--8--8--8--8--8--8--8--8--8--5--5--5--8--8--8--8--8--8--8--8--10-10-10-|
E|----3--3--3--6--6--6--6--6--6--6--6--6--3--3--3--6--6--6--6--6--6--6--6---8--8--8---|

Back to Introduction/Chorus

Then , Guitar 1 plays over and over :

E|-----------------------------------------------------------------------------------------------|
B|-----10^8^7^8^10^8^7^8^10^8^7^8^10^8^7--8--10--8--7--8--|
G|-----------------------------------------------------------------------------------------------|
D|-----------------------------------------------------------------------------------------------|
A|-----------------------------------------------------------------------------------------------|
E|-----------------------------------------------------------------------------------------------|

Underneath Guitar 1, Guitar 2 plays:

E|-----------------------------------------------------|
B|-----------------------------------------------------|
G|--7------------6----7-----------------6-----7-----|
D|--7-----7-----6-----7---------7------6-----7-----|
A|--5-----7-----4-----5---------7------4-----5-----|
E|---------5----------------------5-------------------|

Play this until end of the song!

E|-----------------------------------------------------------------------------------------------|
B|-----10^-8^-7^-8^-10^-8^-7^-8^-10^-8^-7^-8^-10^-8^-7--8--10--8--7--8--|
G|-----------------------------------------------------------------------------------------------|
D|-----------------------------------------------------------------------------------------------|
A|-----------------------------------------------------------------------------------------------|
E|-----------------------------------------------------------------------------------------------|

Lyrics:

Is there room for both of us
both of us apart?
Are we bound out of obligation? 
Is that all we^ve got?
I get the words,
and when I get to thinking
I don^t want to think, 
I want to feel
How do I feel? ^. 
How do I? ^.

If you^re they only one 
when I^ve had enough
Hail, Hail to the lucky ones
I refer to those in love

I swore I^d love
until the day I die
^and beyond^
Are we going 
to the same place?
If so, can I come?
It^s egg rolling 
thick and heavy 
the past we carry 
I could be new
You underestimate me

If you^re the only one 
when I^ve had enough
Hail, hail to the lucky ones
 I refer to those in love

I sometimes realize 
I could only be as good
as you let me
Are you woman enough
to be my man?
Bandaged hand in hand

I climbed it on
I run in a race
that can^t be won
All hail the lucky ones
I refer to those in love
If you^re my only one 
So good you, only one
I want to be your only one
enough, your one
your one, your one
  development and support by
dmitry ivanov