rock
 
|tablatures   |lyrics   |discussion forums   |more tabs @ XGuitar.com

Pearl Jam tabs

Grievance bass tab

Pearl Jam - Grievance
Tabbed By: Gurzigost
Email: Gurzigost21@yahoo.com

Tuning: Standard (E A D G)

"Big Eye, Big Guy watching me" (I'm not paranoid but aliens from Nibiru
will come and take over the planet between now and 1000 years from now)

Verse                                       (Second Time Only)
G|------------------------------------------|---------------------|
D|------------------------------------------|---------------------|
A|------------------------------------------|---------------------|
E|-0------3---0------3---0------3---0------3|-0------3---0----3-3/|

Prechorus                                       (Last time through)
G|----------------------------------------------|----------------------------||
D|-----------------------------2222222222222222-|----------------------------||
A|-5-4--5-4--5-4--5-4--5-4-5-4------------------|----------------------------||
E|----------------------------------------------|-0000000000000000-----------||

Chorus
G|---------------------------------------------------------------------------||
D|0-------------0/2-5-4-5----------------------------------------------------||
A|--0--0--0-0-0-----------3-2-0--0--0-0-0-2--2--2-2-2-0--0--0-0-0------------||
E|----------------------------------------------------------------3--3--3-3-3||

Bridge
G|------------------------|-12-12-12-11-11-11--------------------------------||
D|*----------------------*|-------------------14-14-14-12-12-12-11-12-11/----||
A|*----------------------*|--------------------------------------------------||
E|-@-00-00-00-00-00-00-00-|--------------------------------------------------||
@Rest while Eddie sings

Outro:
G|------------------------------------------------||
D|------------------------------------------------||Play this
A|-------------------------3--3--3-3-2---0--0--0-0||part four times
E|-0--0--0-0-0-2--2--2-2-2-------------3----------||

G|--------------------------------------------------||
D|-2--2--2-2-2--0--0--0-0-0-------------------------||Play once
A|---------------------------3--3--3-3-2-0--0--0-0-0||
E|--------------------------------------------------||

 Repeat first part of Outro three more times.
  development and support by
dmitry ivanov