rock
 
|tablatures   |lyrics   |discussion forums   |more tabs @ XGuitar.com

Pearl Jam tabs

Go bass tab

From: PePPeRs01@aol.com
Date: Sun, 9 Jul 1995 19:42:06 -0400

Go by Pearl Jam

Once again another Pearl Jam song done on a 5 string bass.  Which is annoying
cause we have to tune down to a drop D.

Intro and most of the song

g------------------------------------------------
d------------------------------------------------
a------------------------------------------------
d-0-0-2-3--6-3-2-----0-0-2-3--6-3------

Chorus

g---------------------------------------------
d----------------------------------------------
a--4h5-5-5-5-4---4h5-5-5-5-4-2-0---
d---------------------------------------------

"Dont go on me" part
g-------------------------------------------
d-------------------------------------------
a------------------------1-1-1-1---------
d-0-0-2-3---6-3-2---------------------

another EASY pearl jam song
if u know any others write me
PePPeRs@aol.com
  development and support by
dmitry ivanov