rock
 
|tablatures   |lyrics   |discussion forums   |more tabs @ XGuitar.com

Pearl Jam tabs

Glorified G guitar tab

Author/Artist: Pearl Jam
Title: Glorified G
Album: Vs.
Transcribed by: Rhythm : Chris Wilson and Brian Steele \ Solo : Evan Cowan
Email: yokel@zip.com.au and ecowan@uclink4.berkeley.edu

Mike plays more notes in the intro than what i have shown,
it is probably the hardest part to get right in the song 'cause 
it has a weird rhythm.

---------------------|---------|------------------------------|---------------
-----3-----3---3-----|-----3---|------------------------------|-3---3-3-3-----
-0h2---4-2-0h2---1-2-|-0h2---0-|------------------------------|-0h2-2-4-2-----
---------------------|---------|--7-x-x-6-x-7-6-x-x-x-x-x-x-x-|-0-----0-0-----
---------------------|---------|--5-x-x-5-x-5-5-x-x-x-x-x-x-x-|---------------
---------------------|---------|------------------------------|---------------
 Intro G1                         G2                            Verse G1 X2   

-5-5-5-5-----|------------5-5-5-5-----|-------------------------------5-5-5---
-6-6-6-6-5-5-|-3------3---6-6-6-6-5-5-|-3-3-3-3-3-3-3-3-3-3-3-3-3-3-3-6-6-6---
-5-5-5-5-5-5-|-2------2---5-5-5-5-5-5-|-2-2-2-2-2-2-2-2-2-2-2-2-2-2-2-5-5-5---
-5-5-5-5-5-5-|-0------0---5-5-5-5-5-5-|-0-0-0-0-0-0-0-0-0-0-0-0-0-0-0-5-5-5---
-------------|-0------0---------------|-0-0-0-0-0-0-0-0-0-0-0-0-0-0-0---------
-------------|------------------------|---------------------------------------
               G2                                                             

-5-----|----------------------|---------|-----------------------------|-------
-6-5-5-|------3-----3---3-----|-----3---|-----------------------------|-------
-5-5-5-|--0h2---4-2-0h2---1-2-|-0h2---0-|-----------------------------|-------
-5-5-5-|----------------------|---------|-7-x-x-6-x-7-6-x-x-x-x-x-x-x-|-------
-------|----------------------|---------|-5-x-x-5-x-5-5-x-x-x-x-x-x-x-|-------
-------|----------------------|---------|-----------------------------|-------
         Chorus G1                        G2                                  

-------------------------------------|----------------------------------------
-------------------------------------|--3---3-3-3-------------3---3-----------
-5-5-5-6-6-6-8-8-8-8-8-8-8-8-8-8-8-8-|--0h2---4-2-2-2-2-2-2-2-0h2---1-2-2-2-2-
-5-5-5-6-6-6-8-8-8-8-8-8-8-8-8-8-8-8-|------------0-0-0-0-0-0---------0-0-0-0-
-3-3-3-4-4-4-6-6-6-6-6-6-6-6-6-6-6-6-|----------------------------------------
-------------------------------------|----------------------------------------
 Bridge    G1                         Outro G1    PM---------|       PM------ 

-----------------------------|-------------------|--------|-------------------
---3---3-----3---3---5b6r5-3-|-------------------|--------|-------------------
-2-0h2---4-2-0h2---0---------|-----------7-7-7-7-|--------|-7-7-7-7-7-7-7-7---
-0---------------------------|-7-7-7-7-7-7-7-7-7-|--------|-7-7-7-7-7-7-7-7---
-----------------------------|-5-5-5-5-5-5-5-5-5-|--------|-5-5-5-5-5-5-5-5---
-----------------------------|-------------------|--------|-------------------
 -| play until solo starts    Fade in PM into heavy strum   G2 plays this     

---------5-5-5-5-5-5-5-5-----------------|------------|-----------------------
---------6-6-6-6-6-6-6-6-5-5-5-5-5-5-5-5-|-10-8-7-5-3-|--------------7-10b12--
-7-7-7-7-5-5-5-5-5-5-5-5-5-5-5-5-5-5-5-5-|------------|-----7h9-9b11----------
-7-7-7-7-5-5-5-5-5-5-5-5-5-5-5-5-5-5-5-5-|------------|-7h9-------------------
-5-5-5-5---------------------------------|------------|-----------------------
-----------------------------------------|------------|-----------------------
 till start of solo                        G1           Solo                  

-7-7----------|-7-----------------------|----------------------------|--------
-----10b12r10-|---10-7---7--------------|----------------------------|--------
--------------|--------9---9b11r9-7---7-|----------------------------|--------
--------------|---------------------9---|-9p7---7--------------------|-9------
--------------|-------------------------|-----9---9-8-7------7b-7----|--------
--------------|-------------------------|---------------10-7------10-|--------
                                                                              

-------10-------10--------|-------10-------10-----|--------12p10----14p10-----
-10h12----10h12----10-----|-10h12----10h12--------|-----10-------10-------10--
----------------------11\-|-------------------11\-|-/11-----------------------
--------------------------|-----------------------|---------------------------
--------------------------|-----------------------|---------------------------
--------------------------|-----------------------|---------------------------
                                                                              

-12p10----14p10----12p10----14p10----12p10----14p10----12p10----14p10-|-------
-------10-------10-------10-------10-------10-------10-------10-------|-------
----------------------------------------------------------------------|-------
----------------------------------------------------------------------|-------
----------------------------------------------------------------------|-------
----------------------------------------------------------------------|-------
                                                                              

-12b14-12b14r12-10-------|-12b14-12b14r12-10-------|--------------------------
-------------------12-10-|-------------------12-10-|-15b17-15-12-------15-----
-------------------------|-------------------------|-------------14b16--------
-------------------------|-------------------------|--------------------------
-------------------------|-------------------------|--------------------------
-------------------------|-------------------------|--------------------------
                                                                              

-------------------|--------------------------|--------------------------|----
-------15----------|-10-10---10-10-10---------|-10-10---10-10-10---------|----
-14b16----14b16r14-|-9--9b11-11-11-11r9-7-----|-9--9b11-11-11-11r9-7-----|----
-------------------|----------------------9-7-|----------------------9-7-|----
-------------------|--------------------------|--------------------------|----
-------------------|--------------------------|--------------------------|----
                        hold bend-----|            hold bend-----|            

--10b12-10-7------------------------------|-----------------------------------
-------------10-7-------10------10----\15-|-----------------------------------
------------------b11r9----9b11-9-----\14-|-----------------------------------
------------------------------------------|-----------------------------------
------------------------------------------|-----------------------------------
------------------------------------------|-----------------------------------
                                                                              

-|-------------------------------------------------------------------|--------
-|--3-3-3-3-3-3-3-3-3-3-3-3-3-3-3-3-3-3-3-3-3-3-3-3-3-3-3-3-3-3-3-3--|--------
-|--2-2-2-2-2-2-2-2-2-2-2-2-2-2-2-2-2-2-2-2-2-2-2-2-0-0-0-0-0-0-0-0--|--------
-|--0-0-0-0-0-0-0-0-0-0-0-0-0-0-0-0-0-0-0-0-0-0-0-0-0-0-0-0-0-0-0-0--|--------
-|------------------3-3-3-3-3-3-3-3-2-2-2-2-2-2-2-2-1-1-1-1-1-1-1-1--|--------
-|-------------------------------------------------------------------|--------
  Stone During Solo, Repeat                                                   

-|--------|-------------------------------------------------------------------
-|---3----|-------------------------------------------------------------------
-|---2----|-------------------------------------------------------------------
-|---0----|-------------------------------------------------------------------
-|--------|-------------------------------------------------------------------
-|--------|-------------------------------------------------------------------
 Stone End                                                                    

  development and support by
dmitry ivanov