rock
 
|tablatures   |lyrics   |discussion forums   |more tabs @ XGuitar.com

Pearl Jam tabs

Glorified G bass tab

"Glorified G"
                   by Pearl Jam from the album "Vs."
               Tabbed by Dave Miller (dwm3@po.cwru.edu)

The verse part has many variations in speed.  The verse
that I have is just a basic outline of notes.  I believe the
rest stems from it.


     Intro/Chorus                                                                
||-------------------------------------------
||*------------------------------------------
||*---5--5--5--5--5--------------5--5-------
||-------------------3--3--5--5--------3--5--
       Glorified version...                                                                                     

         Verse   
||-------------------------------------------
||*------------------------------------------
||*---5-----5/8-----8/10-----10\3------------
||-------------------------------------------
       Got a gun...                                                                                    


||--------------------------------------------
||*-------------------------------------------
||*--3--3--3--4--4--4--6--6--6--6--6--6-------
||--------------------------------------------
      Always keep it loaded...
  development and support by
dmitry ivanov