rock
 
|tablatures   |lyrics   |discussion forums   |more tabs @ XGuitar.com

Pearl Jam tabs

Given To Fly bass tab

PEARL JAM "GIVEN TO FLY" -BASS TAB
--------------------
Tune to Drop D  dadg

the bass starts after guitar riff plays once
First verse
|----------------|----------------|
|----------------|----------------|
|----------------|----------------|
|-5-5-5-5-5-5-5-5|-5-5-5-5-5-5-5-5| 
  
|----------------|----------------|
|----------------|----------------|
|----------------|----------------|
|-0-0-0-0-0-0-0-0|-0-0-0-0-0-0-0-0| 
This is pretty much the whole song

when eddie sings "he is flying..." play
|----------------|---------------|
|----------------|---------------|
|-33-3-3-3-33-3--|-33-3-33-2-0---|
|----------------|-------------5-|


Outro
|-18-16-14-12-14-12-14-12-|
|-------------------------|
|-------------------------| repeat until fade
|-------------------------| 

 h = hammeron
 p = pulloff
 ~ = vibrato
 / = slide up
 \ = slide down
(X)= hold note (let ring)

Tabbed by Mark Linwood

Hint suggesstions or comments to (Rlinwood@powerup.com.au)
I will reply to all emails
  development and support by
dmitry ivanov