rock
 
|tablatures   |lyrics   |discussion forums   |more tabs @ XGuitar.com

Pearl Jam tabs

Ghost bass tab

Song: Ghost
Artist: Pearl Jam
Album: Riot Act
Tabbed by: Jase Warner (trip_through_your_wires@hotmail.com)

Standard Tuning (E,A,D,G)

Intro:

G|-----------|-----------|-----------|
D|*----------|-----------|----------*|
A|*----------|-5--5-5-5#-|-5--5-5-5#*|
E|-7--7-7-7#-|-----------|-----------|

First Verse:

G|-----------|-----------|-----------|-----------|
D|*----------|-----------|-----------|----------*|
A|*----------|-----------|-5--5-5-5#-|-5--5-5-5#*|
E|-7--7-7-7#-|-7--7-7-7#-|-----------|-----------|

G|-----------|-----------|-----------|-----------|
D|*----------|-----------|-----------|----------*|
A|*----------|-----------|-5--5-5-5#-|-\9--9-9-9*|
E|-7--7-7-7#-|-7--7-7-7#-|-----------|-----------|

G|-----------|-----------|-----------|-----------|
D|*----------|-----------|-----------|----------*|
A|*----------|-----------|-5--5-5-5#-|-5--5-5-5#*|
E|-7--7-7-7#-|-7--7-7-7#-|-----------|-----------|

G|-----------|-----------|-----------|-----------|
D|*----------|-----------|-----------|----------*|
A|*----------|-----------|-5--5-5-5#-|-\9--9-9-9*|
E|-7--7-7-7#-|-7--7-7-7#-|-----------|-----------|

Break:

G|-----------|
D|*---------*|
A|*---------*|
E|-7--7-7--7-|

Chorus:

G|-----------|-----------|-----------|-----------|
D|*----5-----|-----4-----|-----5-----|-----4----*|
A|*----------|-----------|-----------|----------*|
E|-3-------3-|-2-------2-|-3-------3-|-2-------2-|

G|-----------|-----------|-----------|-----------|
D|*----5-----|-----4-----|-----5-----|-5-------5*|
A|*----------|-----------|-----------|----------*|
E|-3-------3-|-2-------2-|-3-------3-|-----3-----|

Break:

G|-----------|-----------|-----------|
D|*----------|-----------|----------*|
A|*----------|-5--5-5-5#-|-5--5-5-5#*|
E|-7--7-7-7#-|-----------|-----------|

G|-----------|-----------|-----------|-----------|
D|*----------|-----------|-----------|----------*|
A|*----------|-----------|-5--5-5-5#-|-\9--9-9-9*|
E|-7--7-7-7#-|-7--7-7-7#-|-----------|-----------|

Second Verse:

G|-----------|-----------|-----------|-----------|
D|*----------|-----------|-----------|----------*|
A|*----------|-----------|-5--5-5-5#-|-5--5-5-5#*|
E|-7--7-7-7#-|-7--7-7-7#-|-----------|-----------|

G|-----------|-----------|-----------|-----------|
D|*----------|-----------|-----------|----------*|
A|*----------|-----------|-5--5-5-5#-|-\9--9-9-9*|
E|-7--7-7-7#-|-7--7-7-7#-|-----------|-----------|

Break:

G|-----------|
D|*---------*|
A|*---------*|
E|-7--7-7--7-|

Chorus:

G|-----------|-----------|-----------|-----------|
D|*----5-----|-----4-----|-----5-----|-----4----*|
A|*----------|-----------|-----------|----------*|
E|-3-------3-|-2-------2-|-3-------3-|-2-------2-|

G|-----------|-----------|-----------|-----------|
D|*----5-----|-----4-----|-----5-----|-5-------5*|
A|*----------|-----------|-----------|----------*|
E|-3-------3-|-2-------2-|-3-------3-|-----3-----|

Guitar Solo:

G|-----------|-----------|-----------|
D|*----------|-----------|----------*|
A|*----------|-5--5-5-5#-|-5--5-5-5#*|
E|-7--7-7-7#-|-----------|-----------|

G|-----------|-----------|-----------|-----------|
D|*----------|-----------|-----------|----------*|
A|*----------|-----------|-5--5-5-5#-|-5--5-5-5#*|
E|-7--7-7-7#-|-7--7-7-7#-|-----------|-----------|

G|-----------|-----------|-----------|-----------|
D|*----------|-----------|-----------|----------*|
A|*----------|-----------|-5--5-5-5#-|-\9--9-9-9*|
E|-7--7-7-7#-|-7--7-7-7#-|-----------|-----------|

G|-----------|
D|*---------*|
A|*---------*|
E|-7--7-7--7-|

G|-----------|-----------|-----------|-----------|
D|*----5-----|-----4-----|-----5-----|-----4----*|
A|*----------|-----------|-----------|----------*|
E|-3-------3-|-2-------2-|-3-------3-|-2-------2-|

G|-----------|-----------|-----------|-----------|
D|*----5-----|-----4-----|-----5-----|-5-------5*|
A|*----------|-----------|-----------|----------*|
E|-3-------3-|-2-------2-|-3-------3-|-----3-----|

Chorus:

G|-----------|-----------|-----------|-----------|
D|*----------|-----------|-----------|----------*|
A|*----------|-----------|-----------|----------*|
E|-3--3-3--3-|-2--2-2--2-|-3--2-2--3-|-2--2-2--2-|

G|-----------|-----------|-----------|-----------|
D|*----------|-----------|-----------|----------*|
A|*----------|-----------|-----------|----------*|
E|-3--3-3--3-|-2--2-2--2-|-3--3-3--3-|-3--3-3--3-|

Break:

G|-----------|-----------|-----------|
D|*----------|-----------|----------*|
A|*----------|-5--5-5-5#-|-5--5-5-5#*|
E|-7--7-7-7#-|-----------|-----------|

G|-----------|-----------|-----------|-----------|
D|*----------|-----------|-----------|----------*|
A|*----------|-----------|-5--5-5-5#-|-\9--9-9-9*|
E|-7--7-7-7#-|-7--7-7-7#-|-----------|-----------|

Third Verse:

G|-----------|-----------|-----------|-----------|
D|*----------|-----------|-----------|----------*|
A|*----------|-----------|-5--5-5-5#-|-5--5-5-5#*|
E|-7--7-7-7#-|-7--7-7-7#-|-----------|-----------|

G|-----------|-----------|-----------|-----------|
D|*----------|-----------|-----------|----------*|
A|*----------|-----------|-5--5-5-5#-|-\9--9-9-9*|
E|-7--7-7-7#-|-7--7-7-7#-|-----------|-----------|

Outro:

G|-----------|-----------|-----------|-----------|
D|*----------|-----------|-----------|----------*|
A|*----------|-----------|-5--5-5-5#-|-5--5-5-5#*|
E|-7--7-7-7#-|-7--7-7-7#-|-----------|-----------|

G|-----------|-----------|-----------|-----------|
D|*----------|-----------|-----------|----------*|
A|*----------|-----------|-5--5-5-5#-|-5--5-5-5#*|
E|-7--7-7-7#-|-7--7-7-7#-|-----------|-----------|

G|-----------|-----------|-----------|-----------|
D|*----------|-----------|-----------|----------*|
A|*----------|-----------|-5--5-5-5#-|-5--5-5-5#*|
E|-7--7-7-7#-|-7--7-7-7#-|-----------|-----------|

G|-----------|-----------|-----------|-----------|
D|*----------|-----------|-----------|----------*|
A|*----------|-----------|-5--5-5-5#-|-5--5-5-5#*|
E|-7--7-7-7#-|-7--7-7-7#-|-----------|-----------|

Ending:

G|-----------|-----------|-----------|-----------|
D|*----------|-----------|-----------|----------*|
A|*----------|-----------|-----------|----------*|
E|-7---------|-----------|-----------|--------7\-|

Hope you enjoy this, it's pretty easy to play really. It'd be cool if you
could give it a rating, as with some of the other Pearl Jam tabs I've done
for Riot Act :)
  development and support by
dmitry ivanov