rock
 
|tablatures   |lyrics   |discussion forums   |more tabs @ XGuitar.com

Pearl Jam tabs

Dissident guitar tab

Author/Artist: Pearl Jam
Title: Dissident
Album: Vs.
Transcribed by: Chris Wilson
Email: yokel@zip.com.au
(Last Updated-02/07/99)

-|---------------------|-----------------------------------------|------------
-|---------------------|-----------------------------------------|------------
-|--7-7-7-7-7-7-7-7-7--|--14b16--14b16r14p12-14v-14-14b16r14-12v-|------------
-|--x-x-x-x-x-x-x-x-x--|-----------------------------------------|------------
-|--5-5-5-5-5-5-5-5-5--|-----------------------------------------|------------
-|---------------------|-----------------------------------------|------------
  Intro Stone    4x      Mike                   2x                            

-|----------------------------------------------|-----------------------------
-|--------15-------15---------------------------|-----------------------------
-|--14b16----14b16----14b16r14-14v-14b16r14-12v-|-----------------------------
-|----------------------------------------------|-----------------------------
-|----------------------------------------------|-----------------------------
-|----------------------------------------------|-----------------------------
                      2x                                                      

-|--------------------------------3-3--|--3--3--3--3------------|-------------
-|-------1------------------------3-3--|--6--5--3--5------------|-------------
-|----0--0----x-x--0-------0------3-3--|--3--3--3--3--5---------|-------------
-|--2----0h2--x-x--0h2-2h3-3/5-5-------|--5--5--5--5----5----5--|-------------
-|-------3-----------------------------|-----------3-------3----|-------------
-|-------------------------------------|-----------3------------|-------------
   Verse Stone                                                                

-|--------------------------3-3--|--3--3--3--3--|--------|--------------------
-|--1-----------------------3-3--|--6--5--3--5--|--3--3--|--------------------
-|--0----x-x--0-------------3-3--|--3--3--3--3--|--5--5--|--------------------
-|--0h2--x-x--0h2-2h3-3/5-5------|--5--5--5--5--|--5--5--|--------------------
-|--3----------------------------|-----------3--|--------|--------------------
-|-------------------------------|-----------3--|--------|--------------------
                                                                              

-|---------------------------3-3--|--3--3--3--3--|-------|--------------------
-|--1------------------------3-3--|--6--5--3--5--|-------|--------------------
-|--0----x-x--0--------------3-3--|--3--3--3--3--|--5----|--------------------
-|--0h2--x-x--0h2-2h3-3/5-5-------|--5--5--5--5--|----5--|--------------------
-|--3-----------------------------|-----------3--|-------|--------------------
-|--------------------------------|-----------3--|-------|--------------------
                         With Fill 1                                          

-|---------------------------3-3--|--3--3--3--3--|----------------------------
-|--1-----------------1-3-3--3-3--|--6--3--5--3--|----------------------------
-|--0----x-x--0-------0-0-0--3-3--|--3--3--3--5--|----------------------------
-|--0h2--x-x--0h2-2h3-3/5-5-------|--5--5--5--5--|----------------------------
-|--3-----------------------------|--3--3--3--3--|----------------------------
-|--------------------------------|--------------|----------------------------
   With Fill 2                      With Fill 3                               

-|---------|----------|--------------|--8h10p8--|-----------------------------
-|---------|---1--1---|--6--3--5-----|----------|-----------------------------
-|--5h7p5--|---0--0---|-----------5--|----------|-----------------------------
-|---------|---2--2---|--------------|----------|-----------------------------
-|---------|---3--3---|--------------|----------|-----------------------------
-|---------|----------|--------------|----------|-----------------------------
   Fill 1     Fill 2    Fill 3         Fill 4                                 

-|-----------------------|------------------------------------------|---------
-|-----------------------|------------------------------------------|---------
-|--7-7-7-7-7-7-7-7-7-7--|--14b16-14b16r14p12-14v-14-14b16r14-12vv--|---------
-|--x-x-x-x-x-x-x-x-x-x--|------------------------------------------|---------
-|--5-5-5-5-5-5-5-5-5-5--|------------------------------------------|---------
-|-----------------------|------------------------------------------|---------
  Chorus Stone    x4       Mike        2x                                     

-|-------------------------------------------|--------------------------------
-|--15b17-15b17-15b17r15--15b17-15b17r15-----|--------------------------------
-|---------------------------------------12--|--------------------------------
-|-------------------------------------------|--------------------------------
-|-------------------------------------------|--------------------------------
-|-------------------------------------------|--------------------------------
                                                                              

-|-------------------------------------------------------|--------------------
-|-------------------------------------------------------|--------------------
-|--12-12-12-12-14b16-14b16r14p12-14v-14-14b16r14-12vv\--|--------------------
-|-------------------------------------------------------|--------------------
-|-------------------------------------------------------|--------------------
-|-------------------------------------------------------|--------------------
                                                                              

-|---------------------------3-3--|--3--3--3--3--|---------------|------------
-|--1---x-x--1---------------3-3--|--6--5--3--5--|---------------|------------
-|--0---x-x--0-------------3-3-3--|--3--3--3--3--|--5---------5--|------------
-|--0h2-x-x--0h2-2h3-3/5-5--------|--5--5--5--5--|----5--5-5-----|------------
-|--3---x-x--3--------------------|-----------3--|---------------|------------
-|--------------------------------|--------------|---------------|------------
   Verse Stone                 improvise/jam                                  

-|------------------------3-3-3--|--3--3--3--3--|------------|----------------
-|--1---------------------3-3-3--|--6--5--3--5--|--3-3-------|----------------
-|--0-----0-0-------------3-3-3--|--3--3--3--3--|--5-5----5--|----------------
-|--0h2-2---0h2-2h3-3/5-5--------|--5--5--5--5--|----5--5----|----------------
-|--3----------------------------|-----------3--|------------|----------------
-|-------------------------------|--------------|------------|----------------
                                 With Fill 4                                  

-|--------------------------3-3--|--3--3--3--3--|--3-------|------------------
-|--1---------1-------------3-3--|--6--5--3--5--|--3-------|------------------
-|--0----x-x--0---0--------------|--3--3--3--3--|--5--5----|------------------
-|--0h2--x-x--0h2-2h3-3/5-5------|--5--5--5--5--|--5----5--|------------------
-|--3---------3------------------|-----------3--|----------|------------------
-|-------------------------------|--------------|----------|------------------
                                                                              

-|-------------------------3-3-3--|--3--3--3--3--|-----------|----------------
-|--1--------1-------------3-3-3--|--6--3--5--3--|--3--3--3--|----------------
-|--0----x-x-0---0---0-0---3-3-3--|--3--3--3--5--|--5--5--5--|----------------
-|--0h2--x-x-0h2-2h3-3/5-5--------|--5--5--5--5--|--5--5--5--|----------------
-|--3--------3--------------------|--3--3--3--3--|--3--3--3--|----------------
-|--------------------------------|--------------|-----------|----------------
   With Fill 2                       With Fill 3                              

-|-----------------------|---------------------------------------|------------
-|-----------------------|--10b12--10b12r10p8--10--10b12r10-8vv--|------------
-|--7-7-7-7-7-7-7-7-7-7--|---------------------------------------|------------
-|--x-x-x-x-x-x-x-x-x-x--|---------------------------------------|------------
-|--5-5-5-5-5-5-5-5-5-5--|---------------------------------------|------------
-|-----------------------|---------------------------------------|------------
   Chorus Stone     4x     Mike                 4x                            

-|------------------|------------------------------------------|--------------
-|------------------|------------------------------------------|--------------
-|------------------|------------------------------------------|--------------
-|--5--/--8--/--10--|--10--10--10--10--10--10--10--10--10--10--|--------------
-|--5--/--8--/--10--|--10--10--10--10--10--10--10--10--10--10--|--------------
-|--3--/--6--/--8---|--8---8---8---8---8---8---8---8---8---8---|--------------
   Bridge Stone    4x                                                         

-|-------------------------------------------|--------------------------------
-|----------------8---------8---------8------|--------------------------------
-|--0-0-0-0-0-0-0---0-0-0-0---0-0-0-0---0-0--|--------------------------------
-|-------------------------------------------|--------------------------------
-|-------------------------------------------|--------------------------------
-|-------------------------------------------|--------------------------------
   Mike     4x                                                                

-|-----------------------|----------------------------------------------------
-|-----------------------|----------------------------------------------------
-|--7-7-7-7-7-7-7-7-7-7--|----------------------------------------------------
-|--x-x-x-x-x-x-x-x-x-x--|----------------------------------------------------
-|--5-5-5-5-5-5-5-5-5-5--|----------------------------------------------------
-|-----------------------|----------------------------------------------------
  Outro\Chorus Stone (till end)                                               

-|--------------------------------------------------------------|-------------
-|--------------------------------------------------------------|-------------
-|--14b16-14b16r14p12-14vv-14-14-14-14-14--14b16-14b16r14-12vv--|-------------
-|--------------------------------------------------------------|-------------
-|--------------------------------------------------------------|-------------
-|--------------------------------------------------------------|-------------
   Mike                          2x                                           

-|-----------------------------------------------------|----------------------
-|-------------------------------------------15b17r15--|----------------------
-|--14b16-14b16r14p12--14--14--14b16r14-12vv-----------|----------------------
-|-----------------------------------------------------|----------------------
-|-----------------------------------------------------|----------------------
-|-----------------------------------------------------|----------------------
                                                                              

-|-------------------------------------------------------------------|--------
-|--15b17-15b17r15-----15-15-15-15b17-15b17r15-----------------------|--------
-|-----------------12--------------------------12-12-12-12-12-14-12--|--------
-|-------------------------------------------------------------------|--------
-|-------------------------------------------------------------------|--------
-|-------------------------------------------------------------------|--------
                                                                              

-|-----------------------------------------15b17r15v--|-----------------------
-|----------------------------------------------------|-----------------------
-|--14b16-14b16r14p12-14v-14v-14b16r14-12v------------|-----------------------
-|----------------------------------------------------|-----------------------
-|----------------------------------------------------|-----------------------
-|----------------------------------------------------|-----------------------
                                                                              

-|-----------------------------------------------------------|----------------
-|-----------------------------------------------------------|----------------
-|--14b16-14b16r14p12-14-------12-14-12-14b16-14b16r12-12vv--|----------------
-|-----------------------12h14-------------------------------|----------------
-|-----------------------------------------------------------|----------------
-|-----------------------------------------------------------|----------------
                                                                              

-|-------------------------|-------------------------------------------|------
-|------15----15----15-----|--15h17-15----15h17-15h17-15----15h17--15--|------
-|--/16----16----16----16--|-----------16----------------16------------|------
-|-------------------------|-------------------------------------------|------
-|-------------------------|-------------------------------------------|------
-|-------------------------|-------------------------------------------|------
                                                                              

-|----------------------------|-----------------------------|-----------------
-|--20v-20-17-17h20-20-20-20--|--17-------------------------|-----------------
-|----------------------------|-----19-16h19-16\14-12vv--/--|-----------------
-|----------------------------|-----------------------------|-----------------
-|----------------------------|-----------------------------|-----------------
-|----------------------------|-----------------------------|-----------------
                                                                              

-|--8------|------------------------------------------------------------------
-|--8---8--|------------------------------------------------------------------
-|--5---7--|------------------------------------------------------------------
-|--5---5--|------------------------------------------------------------------
-|---------|------------------------------------------------------------------
-|---------|------------------------------------------------------------------
   Stone     That's it!                                                       

  development and support by
dmitry ivanov