rock
 
|tablatures   |lyrics   |discussion forums   |more tabs @ XGuitar.com

Pearl Jam tabs

Dissident bass tab

"Dissident"
                        by Pearl Jam from the album "Vs."
                    Tabbed by Dave Miller (dwm3@po.cwru.edu)  


     Intro/Chorus            
||----------------------------
||*---------------------------
||*---------------------------
||----3--2--1-----1--0--3-----
      ...the dissident...     


           Variation of chorus                     
||------------------------------------------------
||*-----------------3-----3--2--5-----------------
||*------------3h5--------------------------------
||----3--2--1-------------------------------------

                                                                         

     Verse                                                                      
||----------------------------------------------------
||*---------------------------------------------------
||*---3-----3--3-----1-----3--3-----3/5-----1-----3---
||----------------------------------------------------
     She nursed him there...                                                                                

     Interlude                                                                  
||---------------------------------
||*---------------------------------
||*------1--3--------1--3--3/5\1----
||----3-----------3-----------------
  development and support by
dmitry ivanov