rock
 
|tablatures   |lyrics   |discussion forums   |more tabs @ XGuitar.com

Pearl Jam tabs

Daughter bass tab

PEARL JAM "DAUGHTER" -BASS TAB
--------------------
The guitars are tunned to g but the bass is tunned normally

verse
|-------|-------------|
|-------|-------------|
|-----3-|-----3---3/5-|
|-3/5---|-3/5---5-----| 
  
This is pretty much the whole song

chorus
|-----------------|-----------------|
|-----------------|-----------------|
|-----------------|-------------2h5-|
|-0-0-0-0-0-0-0-0-|-2-2-3-3-3h5-----|

Outro
|-----------------|-----------------|
|-----------------|-----------------|
|-----------------|-------------2/5-|
|-0-0-0-0-0-0-0-0-|-2-2-2-2-3-3-----|

 h = hammeron
 p = pulloff
 ~ = vibrato
 / = slide up
 \ = slide down
(X)= hold note (let ring)

Tabbed by Mark Linwood

Hint suggesstions or comments to (Rlinwood@powerup.com.au)
I will reply to all emails
  development and support by
dmitry ivanov