rock
 
|tablatures   |lyrics   |discussion forums   |more tabs @ XGuitar.com

Pearl Jam tabs

Cropduster bass tab

Song: Cropduster
Artist: Pearl Jam
Album: Riot Act
Tabbed by: Jase Warner (trip_through_your_wires@hotmail.com)

Standard Tuning (E,A,D,G)

Intro:

G|------------------------------------------|
D|*----------------------------------------*|
A|*--------1-\-3-\-5------5-5----------1-0-*|
E|--1-\-3----------------------0-1-\-3------|

Verse:

G|------------------------|
D|*-\7-7-------------5-4-*|
A|*-----0-7\5-3-3--5-----*|
E|------------------------|

Break between verse's

G|---------------------------------|
D|*-5555555-0-33333333--------(6)-*|
A|*--------------------\77777-----*|
E|---------------------------------|

Pre-Chorus:

G|---------------------------| x2
D|*-------------------------*|
A|*-4-4-44-0\-6-6-67-77-\---*|
E|------------------------4--|

G|---------------------|
D|*-------------------*|
A|*-4-44-444-444-4-4\-*|
E|---------------------|

Chorus

G|---------------------------| x3
D|*-------------------------*|
A|*-\3-2-------5-5-57-7-7---*|
E|-------5-3-0-----------\3--|

G|-----------------|
D|*-\10-9-7-5-----*|
A|*-----------5-0-*|
E|-----------------|

Play verse riff for guitar solo and throughout until
pre-chrous is reached and continue above.

Interlude/Variation

G|-------9---9-------5---5--------------------5---5---------------| x3
D|*------------------------------7---7---------------------------*|
A|*-\7-7---7---0-3-3---3---------------0\-3-3---3---0\-555555----*|
E|------------------------0\-5-5---5--------------------------7\--|
Then play this with variations for the end of the song
whilst it fades out:

G|--------------------------------------|
D|*------------------------------------*|
A|*----------1-1-\-3-3-\-5----5-5--5---*|
E|--1-1\-3-3-------------------------0--|

G|--------------------------------------|
D|*--------------------------7---7\9---*|
A|*----------1-1-\-3-3-\-5-5---5-----5-*|
E|--1-1\-3-3----------------------------|

it's got a lot of variations in which i'll leave you to work
out for yourselves; it's good training :p any suggestions
are welomed at my e-mail address.
  development and support by
dmitry ivanov