rock
 
|tablatures   |lyrics   |discussion forums   |more tabs @ XGuitar.com

Pearl Jam tabs

Corduroy guitar tab

Author/Artist: Pearl Jam
Title: Corduroy
Album: Vitalogy
Transcribed by: Evan Cowan
Email: ecowan@uclink4.berkeley.edu

(Last Updated-(08/19/99)

-|-------------|----------------------------------------------------|---------
-|-------------|----------------------------------------------------|---------
-|-------------|----------------------------------------------------|---------
-|------9----9-|------9----9-------9----9-------9----9-------9----9-|---------
-|-0--0----0---|-7--7----7----7--7----7----0--0----0----0--0----0---|---------
-|-------------|----------------------------------------------------|---------
 Intro-fade in   Guitar 1                        Play bar 3 times             

-|-----------------------------------------------------|----------------------
-|-----------------------------------------------------|----------------------
-|-----------------------------------------------------|----------------------
-|------9----9-------9----9-------9----9--------9----9-|----------------------
-|-7--7----7----7--7----7----0--0----0-----------------|----------------------
-|-----------------------------------------8--8----8---|----------------------
                            Enter guitar 2                                    

-|---------------------------------|-----------0--3--|-1-1-1--0--3--|---------
-|---------------------------------|-----------0--3--|-1-1-1--0--3--|---------
-|---------------------------------|-10-10-10--1--0--|-2-2-2--1--0--|---------
-|---------------------------------|-10-10-10--2--0--|-3-3-3--2--0--|---------
-|-0--0-0-0-0-0-0------------------|--8--8--8--2--2--|-3-3-3--2--2--|---------
-|----------------8--8-8-8-8-8-8-8-|-----------0--3--|-1-1-1--0--3--|---------
 Guitar 2                           Verse, G1                     4x          

-|---------------3---/-|----------------------|-0-----|---------------------|-
-|---------------3---/-|----------------------|---3---|---------------------|-
-|-10-10-10--9\--0-----|-0-0-0-0-0--0-0--2--0-|-----0-|-0-0-0-0-0--0-0--2-0-|-
-|-10-10-10--9\--0-----|-0-0-0-0-0--0-0--2--0-|-------|-0-0-0-0-0--0-0--2-0-|-
-|--8--8--8--7\--2---/-|-3-3-3-3-2--2-2--0--x-|-------|-3-3-3-3-2--2-2--0-x-|-
-|---------------3---/-|--------------------3-|-------|-------------------3-|-
 Verse, G2          5x  Chorus-G1              G.2.    G.1.                   

-|----------------|----------------------|-3-----|----------------------|-3-|-
-|----------------|----------------------|---3---|----------------------|-3-|-
-|----------------|-0-0-0-0-0--0-0--2--0-|-----0-|-0-0-0-0-0--0-0--2--0-|-0-|-
-|----------------|-0-0-0-0-0--0-0--2--0-|-------|-0-0-0-0-0--0-0--2--0-|-0-|-
-|----------------|-3-3-3-3-2--2-2--0--x-|-------|-3-3-3-3-2--2-2--0--x-|---|-
-|----------------|--------------------3-|-------|--------------------3-|---|-
                                          G.2.    G.1.                  G.2.  

-|-----------------------------------------------------|----------------------
-|-----------------------------------------------------|----------------------
-|-----------------------------------------------------|----------------------
-|------9----9-------9----9-------9----9--------9----9-|----------------------
-|-7--7----7----7--7----7----0--0----0---0-------------|----------------------
-|-----------------------------------------8--8----8---|----------------------
 Interlude, G.1.                                    2x                        

-|----------------------------------------------------------------|-----------
-|----------------------------------------------------------------|-----------
-|----------------------------------------------------------------|-----------
-|-9-9-9-9-9-9-9-9-9-9-9-9-9-9-9-9-9-9-9-9-9-9-9-9--9-9-9-9-9-9-9-|-----------
-|-7-7-7-7-7-7-7-7-7-7-7-7-7-7-7-7-7-7-7-7-7-7-7-7--7-7-7-7-7-7-7-|-----------
-|---------------------------------5-5-5-5-5-5-5-8--8-8-8-8-8-8-8-|-----------
 Interlude, G.2.                                                              

-|----------------------------------------------------------------|-----------
-|----------------------------------------------------------------|-----------
-|----------------------------------------------------------------|-----------
-|-9-9-9-9-9-9-9-9-9-9-9-9-9-9-9-9--------------------------------|-----------
-|-7-7-7-7-7-7-7-7-7-7-7-7-7-7-7-7-7-7-7-7-7-7-7-7--7-7-7-7-7-7-7-|-----------
-|---------------------------------5-5-5-5-5-5-5-8--8-8-8-8-8-8-8-|-----------
                                                                              

-|-----------0--3--|-1-1-1--0--3---|---------------3----/-|-------------------
-|-----------0--3--|-1-1-1--0--3---|---------------3----/-|-------------------
-|-10-10-10--1--0--|-2-2-2--1--0---|-10-10-10--9\--0------|-------------------
-|-10-10-10--2--0--|-3-3-3--2--0---|-10-10-10--9\--0------|-------------------
-|--8--8--8--2--2--|-3-3-3--2--2---|--8--8--8--7\--2----/-|-------------------
-|-----------0--3--|-1-1-1--0--3---|---------------3----/-|-------------------
 2nd Verse, G1                   4x 2nd Verse, G2       5x                    

-|----------------------|-0-----|--------------------|------------------------
-|----------------------|---3---|--------------------|------------------------
-|-0-0-0-0-0--0-0--2--0-|-----0-|-0-0-0-0-0--0-0-2-0-|------------------------
-|-0-0-0-0-0--0-0--2--0-|-------|-0-0-0-0-0--0-0-2-0-|------------------------
-|-3-3-3-3-2--2-2--0--x-|-------|-3-3-3-3-2--2-2-0-x-|------------------------
-|--------------------3-|-------|------------------3-|------------------------
  Chorus, G.1.           G.2.    G.1.                                         

-|----------------------|-3-----|----------------------|----|-----------------
-|----------------------|---3---|----------------------|-3--|-----------------
-|-0-0-0-0-0--0-0--2--0-|-----0-|-0-0-0-0-0--0-0--2--0-|-4--|-----------------
-|-0-0-0-0-0--0-0--2--0-|-------|-0-0-0-0-0--0-0--2--0-|-5--|-----------------
-|-3-3-3-3-2--2-2--0--x-|-------|-3-3-3-3-2--2-2--0--x-|----|-----------------
-|--------------------3-|-------|--------------------3-|----|-----------------
                         G.2.    G.1.                   G.2.                  

-|----------------------|-3-----|----------------------|-------|--------------
-|----------------------|---3---|----------------------|-3-3-3-|--------------
-|-0-0-0-0-0--0-0--2--0-|-----0-|-0-0-0-0-0--0-0--2--0-|-4-4-4-|--------------
-|-0-0-0-0-0--0-0--2--0-|-------|-0-0-0-0-0--0-0--2--0-|-5-5-5-|--------------
-|-3-3-3-3-2--2-2--0--x-|-------|-3-3-3-3-2--2-2--0--x-|-------|--------------
-|--------------------3-|-------|--------------------3-|-------|--------------
  G.1.                   G.2.                           G.2.                  

-|----------------------|-3-----|----------------------|-2-3--3-3-2-|---------
-|----------------------|---3---|----------------------|-3-3--3-3-3-|---------
-|-0-0-0-0-0--0-0--2--0-|-----0-|-0-0-0-0-0--0-0--2--0-|-0-0--0-0-0-|---------
-|-0-0-0-0-0--0-0--2--0-|-------|-0-0-0-0-0--0-0--2--0-|------------|---------
-|-3-3-3-3-2--2-2--0--x-|-------|-3-3-3-3-2--2-2--0--x-|------------|---------
-|--------------------3-|-------|--------------------3-|------------|---------
  G.1.                   G.2.                           G.2.                  

-|-----------------------------------------------------------------|----------
-|-----------------------------------------------------------------|----------
-|-----------------------------------------------------------------|----------
-|-0-0-0-0-0-0-0-0-0-0-0-0-0-0-0-0-0-0-0-0-0-0-0-0-0-0-0-0-0-0-0-0-|----------
-|-2-2-2-2-2-2-2-2-2-2-2-2-2-2-2-2-3-3-3-3-3-3-3-3-3-3-3-3-3-3-3-3-|----------
-|-----------------------------------------------------------------|----------
 Bridge, G.1.                                                    4x           

-|-3--3-2-3--3-3-3-|-3-2-3--3-3-3-|-3--2--3---3-3-3--------|------------------
-|-3--3-3-3--3-3-3-|-3-3-3--3-3-3-|-3--3--3---3-3-3--------|------------------
-|-0--0-0-0--0-0-0-|-0-0-0--0-0-0-|-0--0--0---0-0-0--------|------------------
-|-----------------|--------------|------------------------|------------------
-|-----------------|--------------|------------------------|------------------
-|-----------------|--------------|------------------------|------------------
 Bridge, G.2.                  6x  Enter vocals-7x, simile                    

-|----------------------|-3-3-3-3--2--2-0-----|----------------------|--------
-|----------------------|-3-3-3-3--3--3---3---|----------------------|--------
-|-0-0-0-0-0--0-0--2--0-|-------------------0-|-0-0-0-0-0--0-0--2--0-|--------
-|-0-0-0-0-0--0-0--2--0-|---------------------|-0-0-0-0-0--0-0--2--0-|--------
-|-3-3-3-3-2--2-2--0--x-|---------------------|-3-3-3-3-2--2-2--0--x-|--------
-|--------------------3-|---------------------|--------------------3-|--------
 Chorus, G.1             Chorus, G.2.          G.1.                           

-|-3-----|----------------------|---------------|-----------------------------
-|---3---|----------------------|---------------|-----------------------------
-|-----0-|-0-0-0-0-0--0-0--2--0-|-0-0-0-0-0-0-0-|-----------------------------
-|-------|-0-0-0-0-0--0-0--2--0-|-0-0-0-0-0-0-0-|-----------------------------
-|-------|-3-3-3-3-2--2-2--0--x-|-3-3-3-3-2-2-2-|-----------------------------
-|-------|--------------------3-|---------------|-----------------------------
  G.2.    G.1.               3x                                               

-|-----------0--3--|-1-1-1--0--3---|-1-1-1--0---|---------------3---/-|-------
-|-----------0--3--|-1-1-1--0--3---|-1-1-1--0---|---------------3---/-|-------
-|-10-10-10--1--0--|-2-2-2--1--0---|-2-2-2--1---|-10-10-10--9\--0-----|-------
-|-10-10-10--2--0--|-3-3-3--2--0---|-3-3-3--2---|-10-10-10--9\--0-----|-------
-|--8--8--8--2--2--|-3-3-3--2--2---|-3-3-3--2---|--8--8--8--7\--2---/-|-------
-|-----------0--3--|-1-1-1--0--3---|-1-1-1--0---|---------------3---/-|-------
 Verse, G1                       2x              Verse, G2          4x        

-|------------|------------------|------------------|----------------|--------
-|------------|------------------|------------------|----------------|--------
-|-10-10-10-9-|-3/-10-10-10\9-12-|-10-10-10\9--12-\-|-10-10-10\9--12-|--------
-|-10-10-10-9-|-3/-10-10-10\9-12-|-10-10-10\9--12-\-|-10-10-10\9--12-|--------
-|--8--8--8-7-|------------------|------------------|----------------|--------
-|------------|------------------|------------------|----------------|--------
               Verse, G.2. (w/ slide)                                         

-|------------------|--------------|-----------------------|------------------
-|------------------|--------------|-----------------------|------------------
-|-10-10-10\9--12-\-|-10-10-10-9\--|-----------------------|------------------
-|-10-10-10\9--12-\-|-10-10-10-9\\-|-----------------------|------------------
-|------------------|------------\-|-----------------------|------------------
-|------------------|--------------|-0----0---0---0---0--0-|------------------
                                    Bass Interlude-hit low-E a few times      

-|-----------------------------------------|--------------------|-------------
-|-----------------------------------------|--------------------|-------------
-|-----------------------------------------|--------------------|-------------
-|---9---9-------9---9----9--9----9------9-|---9---9------9---9-|-------------
-|-7---7----7--7---7----0------------------|-7---7---7--7---7---|-------------
-|------------------------------8----8-8---|--------------------|-------------
  G1                                                                          

-|--------------------------|------------|--------------|---------------------
-|--------------------------|------------|--------------|---------------------
-|--------------------------|------------|--------------|---------------------
-|---9---9----9-9-9-9-9-9-9-|------------|--------------|---------------------
-|-0---0------x-x-x-x-x-x-x-|-7--0---0---|-7----0-------|---------------------
-|---------8--8-8-8-8-8-8-8-|----------8-|-----------8--|---------------------
                             G2                                               

-|-3-3-2-3--3-2-3--3-2-3--3-3-3-3-3-3-3-|-----------------------------------|-
-|-3-3-3-3--3-3-3--3-3-3--3-3-3-3-3-3-3-|-----------------------------------|-
-|-0-0-0-0--0-0-0--0-0-0--0-0-0-0-0-0-0-|-----------------------------------|-
-|--------------------------------------|-9-9-9-9-9-9-9-9--9-9-9-9-9-9-9----|-
-|--------------------------------------|-7-7-7-7-0-0-0---------------------|-
-|--------------------------------------|---------------8--8-8-8-8-8-8-8----|-
 Outro, G2       Play simile till end    G1-strum                             

-|---------------------------------|--------------------------------|---------
-|---------------------------------|--------------------------------|---------
-|---------------------------------|--------------------------------|---------
-|-9-9-9-9-9-9-9-9--9b9b9b9b9b9b9b-|-9-9-9-9-9-9-9-9-9b9b9b9b9b9b9b-|---------
-|-7-7-7-7-0-0-0-------------------|-7-7-7-7-0-0-0------------------|---------
-|---------------8-----------------|---------------8----------------|---------
                    grad.bend               Repeat simile till end            

-|-0--0--0--0-|-------------------------|--------------|--------------|-------
-|-0--0--0--0-|-------------------------|-7-7-7---7----|-7-7-7---7-9\-|-------
-|-0--0--0--0-|-9--9--9--9--9--9--9--9--|-7-7-7-7-7-9\-|-7-7-7-7-7-7\-|-------
-|------------|-9--9--9--9--9--9--9--9--|-------9---9\-|-------9---9\-|-------
-|------------|-7--7--7--7--7--7--7--7--|--------------|--------------|-------
-|------------|-------------------------|--------------|--------------|-------
 G3-first time  Every other time-upbeat  G4-enter 3:58                        

-|-----------------------------|------------0-------------0-|-----------------
-|-7-7-7---7-------------------|------------0-------------0-|-----------------
-|-7-7-7-7-7-9-----------------|-2b3r2p0----0--2b3r2p0----0-|-----------------
-|-------9---9--9b9b9b9b9b9b9b-|---------2-------------2----|-----------------
-|-----------------------------|----------------------------|-----------------
-|-----------------------------|----------------------------|-----------------
  Play last 3 bars 4 times                                                    

-|--------------------------------------------|-------------------------------
-|--------------------------------------------|-------------------------------
-|--------------------------------------------|-------------------------------
-|--------------------------------------------|-------------------------------
-|--------------------------------------------|-------------------------------
-|--------------------------------------------|-------------------------------
 G1, G2, G3 repeat parts till end and fade...                                 

  development and support by
dmitry ivanov