rock
 
|tablatures   |lyrics   |discussion forums   |more tabs @ XGuitar.com

Pearl Jam tabs

Corduroy bass tab

Pearl Jam
Corduroy 
Tabbed By: Justin Clark
           Truro,Cornwall UK.
I read the previous tab by The wolf (yu125676@yorku.ca) 
and its not quite right, 
so I've made some corrections.

Normal Tuning : EADG

Intro
G---------------------------------
D---------------------------------
A----7-7-7-7-7-7-0--0-------------
E--------------------8--88888-----
(The intro on the Vitalogy album is much more complicated, but 
I can't be bothered to work it out)

Verse
G---------------------------------
D---------------------------------
A--/8-8-8-8-7---------------------
E------------3--33----------------

Chorus
G---------------------------------
D---------------------------------
A---3-3-3-3-22-2-0----------------
E-----------------3-333-----------

Interlude
G---------------------------------            
D---------------------------------    There are some variations here, 
A---222222222222-3333333333-------    but I can't be bothered to work 
E---------------------------------    them out!
"Everything has changed..."

Quiet bit before ending
G---------------------------------
D---------------------------------
A---7777777777777777-0-0----------
E-----------------------8---------

Ending
G-----------------------------------------
D-----------------------------------------
A---777777777777-0000000000---------------
E----------------------------88888888888--

Send any corrections to jupclark@yahoo.com
  development and support by
dmitry ivanov