rock
 
|tablatures   |lyrics   |discussion forums   |more tabs @ XGuitar.com

Pearl Jam tabs

Bushleaguer guitar tab

From Riot Act - Pearl Jam
Bu$hleaguer

Intro/Chorus:
-|---------------|---------------|    |-------------|
-|---------------|---------------|    |-------------|
-|---------------|---------------|    |-------------|
-|-4-4-4-4-------|---------------| x6 |-6-6-6-6--9-9|
-|-2-2-2-2--4-4-4|-5-5-5-5--4-4-4|    |-4-4-4-4--7-7|
-|----------2-2-2|-3-3-3-3--2-2-2|    |-------------|


Guitar 1, plays this sort of riff over the intro, first part of verse and chorus:

-|------------------------------------------------------------------------|
-|------------------------------------------------------------------------|
-|-9p7~~--9p7---6---7---9p7-6-7p6-------6b7b6~----6-9p7~~--9p7-6-7-7p6----|
-|--------------------------------9~~~----------9----------------------9--|
-|------------------------------------------------------------------------|
-|------------------------------------------------------------------------|


-|------------------------------------------------------------------------|
-|------------------------------------------------------------------------|
-|-6b7b6~----6-9p7~~------------------------------------------------------|
-|---------9--------------------------------------------------------------|
-|------------------------------------------------------------------------|
-|------------------------------------------------------------------------|


Verse:
-|-------------------|
-|-7----7----5---5p4-|
-|-8----8----4---4p4-|
-|-9----7----6---6p4-|
-|-x----x------------|
-|-7----7------------|


T'other bit: aka Pre-Chorus:
 "Blackout weaves its way through the cities...."
-|----------------|
-|----------------|
-|-7-7/9-9-9-9-97-|
-|-7-7/9-9-9-9-97-|
-|-5-5/7-7-7-7-75-|
-|----------------|

It's not perfect, but you get the gist. Prob.

Lyrics:
First bit (I think it's sung over the intro chords):
How does he do it? How do they do it? Uncanny and immutable
This is such a happening tailpipe of a party.
Like sugar, the guests are so refined, (look like melting mice)

Verse 1:
A confidence man, but why so beleagued?
Heís not a leader, heís a Texas leaguer
Swinging for the fence, got lucky with a strike
Drilling for fear, makes the job simple
Born on third, thinks he got a triple

Pre-Chorus:
Blackout weaves itís way through the cities
Blackout weaves itís way through the cities
Blackout weaves itís way,...

Chorus:
I remember when you sang
That song about today
Now itís tomorrow and
Everything has changed

Verse 2:
A think tank of aloof multiplication
A nicotine wish and a colossus decanter
Retrenchment and foolishness
Whatís the buckos?
The raves have not a clue
The immenseness of suffering
And the odd negotiation, a rarity
With onionskin plausibility of life,
And a keyboard reaffirmation

Pre-Chorus:
Blackout weaves itís way through the cities
Blackout weaves itís way through the cities
Blackout weaves itís way,...

Chorus:
I remember when you sang
That song about today
Now itís tomorrow and
Everything has changed


Momma, where's mah red wainne? I can't sing without mah red wainne!
Long Live the Vedder.

http://www.modj.cjb.net - you know you  love it <(O.o)>
  development and support by
dmitry ivanov