rock
 
|tablatures   |lyrics   |discussion forums   |more tabs @ XGuitar.com

Pearl Jam tabs

Bushleaguer bass tab

Song: Bushleaguer
Artist: Pearl Jam
Album: Riot Act
Tabbed by: Jase Warner (trip_through_your_wires@hotmail.com)

Standard Tuning (E,A,D,G) Down Half A Step

Intro:

G|-----------------|-----------------|-----------------|-----------------|
D|*----------------|-----------------|-----------------|----------------*|
A|*-3-3-3-3--------|-----------------|--3-3-3-3--------|----------------*|
E|------------3-3--|--4-4-4-4---3-3--|------------3-3--|--4-4-4-4---3-3--|

G|-----------------|-----------------|-----------------|-----------------|
D|*----------------|-----------------|-----------------|----------------*|
A|*-3-3-3-3--------|-----------------|--3-3-3-3--------|----------------*|
E|------------3-3--|--4-4-4-4---3-3--|------------3-3--|--4-4-4-4---3-3--|

Break:

G|-----------------|-----------------|-----------------|-----------------|
D|*----------------|-----------------|-----------------|----------------*|
A|*-3-3-3-3--------|-----------------|--3-3-3-3--------|----------------*|
E|------------3-3--|--4-4-4-4---3-3--|------------3-3--|--4-4-4-4---3-3--|

G|-----------------|-----------------|-----------------|-----------------|
D|*-----------3-3--|-----------------|-----------------|----------------*|
A|*-5-5-5-5--------|--3~-------------|-----------------|----------------*|
E|-----------------|-----------------|-----------------|-----------------|

First Verse:

G|-----------------|----9---7---5----|--7p5-------5----|-----------------|
D|*-10~-----10-10--|-----------------|------7--------7-|----------------*|
A|*----------------|-----------------|-----------------|-3~-------------*|
E|-----------------|-----------------|-----------------|-----------------|

G|-----------------|----9---7---5----|--10p9-----------|-----------------|
D|*-10~-----10-10--|-----------------|-------10--10p12-|-10~------------*|
A|*----------------|-----------------|-----------------|----------------*|
E|-----------------|-----------------|-----------------|-----------------|

G|-----------------|----9---7---5----|--7p5-------5----|-----------------|
D|*-10~-----10-10--|-----------------|------7--------7-|----------------*|
A|*----------------|-----------------|-----------------|-3~-------------*|
E|-----------------|-----------------|-----------------|-----------------|

G|-----------------|----9---7---5----|--10p9-----------|-----------------|
D|*-10~-----10-10--|-----------------|-------10--10p12-|-10~------------*|
A|*----------------|-----------------|-----------------|----------------*|
E|-----------------|-----------------|-----------------|-----------------|

Pre-Chorus:

G|-----------------|-----------------|-----------------|-----------------|
D|*----------------|-----------------|-----------------|----------------*|
A|*-6~-----6---6---|-6p8-#---8---8---|-6~------6---6---|-6p8-#---8---8--*|
E|-----------------|-----------------|-----------------|-----------------|

G|-----------------|-----------------|
D|*----------------|----------------*|
A|*-6~-----6---6---|-6p8-#---8---8--*|
E|-----------------|-----------------|

Chorus:

G|-----------------|-----------------|-----------------|-----------------|
D|*----------------|-----------------|-----------------|----------------*|
A|*-3-3-3-3--------|-----------------|--3-3-3-3--------|----------------*|
E|------------3-3--|--4-4-4-4---3-3--|------------3-3--|--4-4-4-4---3-3--|

G|-----------------|-----------------|-----------------|-----------------|
D|*----------------|-----------------|------------3-3--|----------------*|
A|*-3-3-3-3--------|-----------------|--5-5-5-5--------|--3~------------*|
E|------------3-3--|--4-4-4-4---3-3--|-----------------|-----------------|

Break:

G|-----------------|-----------------|-----------------|--------------5~-|
D|*----------------|-----------------|-----------------|----------5p7---*|
A|*----------------|-----------------|-----------------|----------------*|
E|-----------------|-----------------|-----------------|-----------------|

G|-----------------|-----------------|-----------------|-----------------|
D|*----------------|-----------------|-----------------|----------------*|
A|*----------------|-----------------|-----------------|----------------*|
E|-----------------|-----------------|-----------------|-----------------|

Second Verse:

G|-----------------|----9---7---5----|--7p5-------5----|-----------------|
D|*-10~-----10-10--|-----------------|------7--------7-|----------------*|
A|*----------------|-----------------|-----------------|-3~-------------*|
E|-----------------|-----------------|-----------------|-----------------|

G|-----------------|----9---7---5----|--10p9-----------|-----------------|
D|*-10~-----10-10--|-----------------|-------10--10p12-|-10~------------*|
A|*----------------|-----------------|-----------------|----------------*|
E|-----------------|-----------------|-----------------|-----------------|

G|-----------------|----9---7---5----|--7p5-------5----|-----------------|
D|*-10~-----10-10--|-----------------|------7--------7-|----------------*|
A|*----------------|-----------------|-----------------|-3~-------------*|
E|-----------------|-----------------|-----------------|-----------------|

G|-----------------|----9---7---5----|--10p9-----------|-----------------|
D|*-10~-----10-10--|-----------------|-------10--10p12-|-10~------------*|
A|*----------------|-----------------|-----------------|----------------*|
E|-----------------|-----------------|-----------------|-----------------|

Pre-Chorus:

G|-----------------|-----------------|-----------------|-----------------|
D|*----------------|-----------------|-----------------|----------------*|
A|*-6~-----6---6---|-6p8-#---8---8---|-6~------6---6---|-6p8-#---8---8--*|
E|-----------------|-----------------|-----------------|-----------------|

G|-----------------|-----------------|
D|*----------------|----------------*|
A|*-6~-----6---6---|-6p8-#---8---8--*|
E|-----------------|-----------------|

Chorus:

G|-----------------|-----------------|-----------------|-----------------|
D|*----------------|-----------------|-----------------|-----------------|
A|*-3-3-3-3--------|-----------------|--3-3-3-3--------|-----------------|
E|------------3-3--|--4-4-4-4---3-3--|------------3-3--|--4-4-4-4---3-3--|

G|-----------------|-----------------|-----------------|
D|-----------------|----------------*|*-----------3-3-*|
A|--3-3-3-3--------|----------------*|*-5-5-5-5-------*|
E|------------3-3--|--4-4-4-4---3-3--|-----------------|

G|-----------------|-----------------|-----------------|-----------------|
D|*----------------|-----------------|-----------------|--------6--5-----|
A|*-3-3-3-3--------|-----------------|--3-3-3-3--------|------5------6-5-|
E|------------3-3--|--4-4-4-4---3-3--|------------3-3--|--4-4------------|

G|-----------------|-----------------|-----------------|
D|-----------------|----------------*|*-----------3-3-*|
A|--3-3-3-3--------|----------------*|*-5-5-5-5-------*|
E|------------3-3--|--4-4-4-4---3-3--|-----------------|

Outro (Play until fade out):

G|-----------------|-----------------|
D|-----------------|----------------*|
A|-3---3-1~--------|-3---3-1~-------*|
E|---3-----------3-|---3-----------3-|

That's one more from their new album, should be able to do some
more soon. Suggestions always welcome.
  development and support by
dmitry ivanov