rock
 
|tablatures   |lyrics   |discussion forums   |more tabs @ XGuitar.com

Pearl Jam tabs

Bugs guitar tab

Author/Artist: Pearl Jam
Title: Bugs
Album: Vitalogy
Transcribed by: Evan Cowan
Email: ecowan@uclink4.berkeley.edu
Updated 03/21/99

Accordian arranged for guitar

-|----6----6----6----6----5----5----5----5----|-------------------------------
-|----6----6----6----6----6----6----6----6----|-------------------------------
-|----7----7----7----7----5----5----5----5----|-------------------------------
-|----8----8----8----8----7----7----7----7----|-------------------------------
-|----8----8----8----8----8----8----8----8----|-------------------------------
-|----6----6----6----6------------------------|-------------------------------
 Most of song is these two chords                                             

-|---------------------|------------------------------------------------------
-|---------------------|------------------------------------------------------
-|---7-----5-----------|------------------------------------------------------
-|---------------------|------------------------------------------------------
-|---------------------|------------------------------------------------------
-|---------------------|------------------------------------------------------
  Background singing these notes                                              

-|----------------------------------------|-----------------|--11-------|-----
-|--8-----8-----8---------8-8-8-8-8-8-8---|-----------------|-----------|-----
-|--8-----8-----8---------8-8-8-8-8-8-8---|-----------------|-----------|-----
-|--8-----8-----8---------8-8-8-8-8-8-8---|-----------------|-----------|-----
-|--6-----6-----6---------6-6-6-6-6-6-6---|-----------------|-----------|-----
-|----------------------------------------|-----------------|-----------|-----
  Towards end hit this chord a bunch       random chords...  Last note        

  development and support by
dmitry ivanov