rock
 
|tablatures   |lyrics   |discussion forums   |more tabs @ XGuitar.com

Pearl Jam tabs

Breakerfall guitar tab

#-----------------------------------------------------------------------------#
#-- File created with Instab - http://www.pconline.com/~smcarey/instab.html --#
#-----------------------------------------------------------------------------#

Author/Artist: Pearl Jam
Title: Breakerfall
Album: Binaural
Transcribed by: Evan Cowan
Email: ecowan@uclink4.berkeley.edu

Main riff played on a 12 string Rick
Outro lead guitar will be added later

-|------0-----0---------0-----0-----|--------------------------------|--------
-|------0-----0---------0-----0-----|--------------------------------|--------
-|------0-----x---------0-----x-----|--------------------------------|--------
-|-2----5-----7---2-----5-----7-----|-----------2----2---------------|--------
-|-2----5-----7---2-----5-----7-----|---2----5----5----5-2-0---------|--------
-|-0----3-----5---0-----3-----5-----|-0----0-----------------3-2b3r2-|--------
 G1                                                            There's a      

-|----------------------------------|-----------------------------------------
-|----------------------------------|-----------------------------------------
-|----------------------------------|-----------------------------------------
-|----------------------------------|-----------------------------------------
-|----------------2-----------------|-----------------------------------------
-|-0--------------0-----------------|-----------------------------------------
 G2                                                                           

-|--------------------------------|--------------------------------|----------
-|--------------------------------|--------------------------------|----------
-|--------------------------------|--------------------------------|----------
-|-----------2----2---------------|-----------2----2---------------|----------
-|---2----5----5----5-2-0---------|---2----5----5----5-2-0---------|----------
-|-0----0-----------------3-2b3r2-|-0----0-----------------3-2b3r2-|----------
 G1 Girl on a ledge she got nowhere to turn             cause all the         

-|--------------------------------|--------------------------------|----------
-|--------------------------------|--------------------------------|----------
-|--------------------------------|--------------------------------|----------
-|-2------------------------------|-2------------------------------|----------
-|-2------------------------------|-2------------------------------|----------
-|-0------------------------------|-0------------------------------|----------
 G2                                                                           

-|--------------------------------|--------------------------------|----------
-|--------------------------------|--------------------------------|----------
-|--------------------------------|--------------------------------|----------
-|-----------2----2---------------|-----------2----2---------------|----------
-|---2----5----5----5-2-0---------|---2----5----5----5-2-0---------|----------
-|-0----0-----------------3-2b3r2-|-0----0-----------------3-2b3r2-|----------
 G1 Love that she had was just wood that she burned         Now her           

-|--------------------------------|--------------------------------|----------
-|--------------------------------|--------------------------------|----------
-|--------------------4---4-------|-4-------------2----------------|----------
-|-2------------------------------|--------------------------------|----------
-|-2------------------------------|--------------------------------|----------
-|-0------------------------------|--------------------------------|----------
 G2                                                                           

-|--------------------------------|--------------------------------|----------
-|--------------------------------|--------------------------------|----------
-|--------------------------------|--------------------------------|----------
-|-----------2----2---------------|-----------2----2---------------|----------
-|---2----5----5----5-2-0---------|---2----5----5----5-2-0---------|----------
-|-0----0-----------------3-2b3r2-|-0----0-----------------3-2b3r2-|----------
 G1 Life is on fire it's no ones concern she can blame the world prey till    

-|--------------------------------|--------------------------------|----------
-|--------------------------------|--------------------------------|----------
-|--------------------------------|--------------------------------|----------
-|-2------------------------------|-5-----------7------------------|----------
-|-2------------------------------|-5-----------7------------------|----------
-|-0------------------------------|-3-----------5------------------|----------
 G2                                                                           

-|--------------------------------|--------------------------------|----------
-|--------------------------------|--------------------------------|----------
-|--------------------------------|--------------------------------|----------
-|-----------2----2---------------|-----------2----2---------------|----------
-|---2----5----5----5-2-0---------|---2----5----5----5-2-0---------|----------
-|-0----0-----------------3-2b3r2-|-0----0-----------------3-2b3r2-|----------
 G1 Dawn                     but   only love            can breaker           

-|--------------------------------|--------------------------------|----------
-|--------------------------------|--------------------------------|----------
-|--------------------------------|--------------------------------|----------
-|-2------------------------------|-5-----------7------------------|----------
-|-2------------------------------|-5-----------7------------------|----------
-|-0------------3b5--5--/\--------|-3-----------5------------------|----------
 G1              hold--|                                                      

-|---------------------------------------------------|------------------------
-|---------------------------------------------------|------------------------
-|---------------------------------------------------|------------------------
-|-----2-------4-4-4-4-5-7-7--2-------4-4-4-4-5-7-7--|------------------------
-|-----2-------4-4-4-4-5-7-7--2-------4-4-4-4-5-7-7--|------------------------
-|-----0-------2-2-2-2-3-5-5--0-------2-2-2-2-3-5-5--|------------------------
 G1+G2 Fall           breaker fall            yeah                            

-|---------------------------------------------------|------------------------
-|---------------------------------------------------|------------------------
-|---------------------------------------------------|------------------------
-|-----2-------4-4-4-4-5-7-7--2-------4-4-4-4-5-7-7--|------------------------
-|-----2-------4-4-4-4-5-7-7--2-------4-4-4-4-5-7-7--|------------------------
-|-----0-------2-2-2-2-3-5-5--0-------2-2-2-2-3-5-5--|------------------------
 G1+G2 Only love  can breaker fall           fall                             

-|--------------------------------|-------------------------------------------
-|--------------------------------|-------------------------------------------
-|--------------------------------|-------------------------------------------
-|-----------2----2---------------|-------------------------------------------
-|---2----5----5----5-2-0---------|-------------------------------------------
-|-0----0-----------------3-2b3r2-|-------------------------------------------
 G1                      It's like she                                        

-|--------------------------------|-------------------------------------------
-|--------------------------------|-------------------------------------------
-|----1---------------------------|-------------------------------------------
-|----2---------------------------|-------------------------------------------
-|----2---------------------------|-------------------------------------------
-|-0------------------------------|-------------------------------------------
 G2                                                                           

-|--------------------------------|--------------------------------|----------
-|--------------------------------|--------------------------------|----------
-|--------------------------------|--------------------------------|----------
-|-----------2----2---------------|-----------2----2---------------|----------
-|---2----5----5----5-2-0---------|---2----5----5----5-2-0---------|----------
-|-0----0-----------------3-2b3r2-|-0----0-----------------3-2b3r2-|----------
 G1 Lost her invitation to the party on Earth             and she's           

-|--------------------------------|--------------------------------|----------
-|--------------------------------|--------------------------------|----------
-|--------------------------------|--------------------------------|----------
-|--------------------------------|--------------------------------|----------
-|--------------------------------|--------------------------------|----------
-|-0------------------------------|--------------------------------|----------
 G2                                                                           

-|--------------------------------|--------------------------------|----------
-|--------------------------------|--------------------------------|----------
-|--------------------------------|--------------------------------|----------
-|-----------2----2---------------|-----------2----2---------------|----------
-|---2----5----5----5-2-0---------|---2----5----5----5-2-0---------|----------
-|-0----0-----------------3-2b3r2-|-0----0-----------------3-2b3r2-|----------
 G1 Standing outside hating everyone here                    she's            

-|--------------------------------|--------------------------------|----------
-|--------------------------------|---12-12-12-14-12-14b15r14-12---|----------
-|--------------------------------|---12-12-12-14-12-14b15r14-12---|----------
-|--------------------------------|------------------------------14|----------
-|--------------------------------|--------------------------------|----------
-|-0------------------------------|--------------------------------|----------
 G2                                                                           

-|--------------------------------|--------------------------------|----------
-|--------------------------------|--------------------------------|----------
-|--------------------------------|--------------------------------|----------
-|-----------2----2---------------|-----------2----2---------------|----------
-|---2----5----5----5-2-0---------|---2----5----5----5-2-0---------|----------
-|-0----0-----------------3-2b3r2-|-0----0-----------------3-2b3r2-|----------
 G1 Her own disease crying to her doll but only love   can breaker            

-|--------------------------------|--------------------------------|----------
-|--------------------------------|--------------------------------|----------
-|--------------------------------|--------------------------------|----------
-|--------------------------------|-5----------7-------------------|----------
-|--------------------------------|-5----------7-------------------|----------
-|-0------------------------------|-3----------5-------------------|----------
 G2                                                                           

-|---------------------------------------------------|------------------------
-|---------------------------------------------------|------------------------
-|---------------------------------------------------|------------------------
-|-----2-------4-4-4-4-5-7-7--2-------4-4-4-4-5-7-7--|------------------------
-|-----2-------4-4-4-4-5-7-7--2-------4-4-4-4-5-7-7--|------------------------
-|-----0-------2-2-2-2-3-5-5--0-------2-2-2-2-3-5-5--|------------------------
 G1+G2 Fall            breakerfall                                            

-|---------------------------------------------------|-----------|------------
-|---------------------------------------------------|-----------|------------
-|---------------------------------------------------|-----------|------------
-|-----2-------4-4-4-4-5-7-7--2-------4-4-4-4-5-7-7--|-0h2-2-----|------------
-|-----2-------4-4-4-4-5-7-7--2-------4-4-4-4-5-7-7--|-----2-----|------------
-|-----0-------2-2-2-2-3-5-5--0-------2-2-2-2-3-5-5--|-----0-----|------------
 G1+G2 Only love  can breaker fall           yeah                             

-|--0------0-----0-----0----0-----0-----0---------|---------------------------
-|--0------0-----0-----0----0--0--0-----0---------|---------------------------
-|--x------0-----x-----x----------0-----x---------|---------------------------
-|--2------5-----7-----2----------5-----7---------|---------------------------
-|--2------5-----7-----2----------5-----7---------|---------------------------
-|--0------3-----5-----0----------3-----5---------|---------------------------
 G1                    Fall               breaker                             

-|--0------0-----------0----0-----0-----0---------|---------------------------
-|--0-----12----------12------12-15----17---------|---------------------------
-|--x---------------------------------------------|---------------------------
-|--2---------------------------------------------|---------------------------
-|--2---------------------------------------------|---------------------------
-|--0---------------------------------------------|---------------------------
 G2                                                                           

-|--0------------0----------0------------0-------------0-----------0--------|-
-|--0------------0----------0------------0-------------0-----------0--------|-
-|--x------------0----------x------------x-------------0-----------x--------|-
-|--2------------5----------7------------2-------------5-----------7--------|-
-|--2------------5----------7------------2-------------5-----------7--------|-
-|--0------------3----------5------------0-------------3-----------5--------|-
 G1 Fall         love  oh  oh can breakerfall         only love can breaker   

-|--0------------0----------0------------0-------------0-----------0--------|-
-|--0------------0----------0------------0-------------0-----------0--------|-
-|--x------------0----------x------------x-------------0-----------x--------|-
-|--2------------5----------7------------2-------------5-----------7--------|-
-|--2------------5----------7------------2-------------5-----------7--------|-
-|--0------------3----------5------------0-------------3-----------5--------|-
 G1 Fall         oh love love can breakerfall    fall  love love can breaker  

-|--0------------0----------0------------0---------||-------------------------
-|--0------------0----------0------------0---------||-------------------------
-|--x------------0----------x------------x---------||-------------------------
-|--2------------5----------7------------2---------||-------------------------
-|--2------------5----------7------------2---------||-------------------------
-|--0------------3----------5------------0---------||-------------------------
 G1 Fall         only love  can break her                                     

  development and support by
dmitry ivanov