rock
 
|tablatures   |lyrics   |discussion forums   |more tabs @ XGuitar.com

Pearl Jam tabs

Black Red Yellow bass tab

Black, Red, Yellow
Pearl Jam
Tabbed by Nick Key (nkey@ionet.net)
 
standard tuning.

Verse:
 
Fig. 1 - 3x          Fig. 2 - 1x
|-----------------| |-------------|
|-----------------| |-------------|
|-----------------| |-------------|
|-5-5-5-5-5-5-5-5-| |-5-3-0-3--3--|

Repeat this section 3x, then play fig. 1 two times.

Pre-Chorus:
 Fig. 3
|---------------------------------------|
|---------------------------------------| 
|---------------------------------------|
|-12-12-12-12-12-12-12-12--12-10-8-10-/-|

Play fig. 1 two times, then Fig. 3 one time.

Then play Chorus:

|----------------------------------------|
|----------------------------------------| 
|----------------------------------------|
|-5-5-5-5-5-5-5-5-5-5-5-5-5-5-5-3-5------|



|-------------------|
|-------------------| 
|----------------5--|
|-3-5--3-5--3-5-----|

Play this:

|------------------------------|
|------------------------------|
|------------------------------|
|-5-5-5-5-5-5-5-5--5-3-0-3--3--|

Then play verse section one time and fig. 1 2x.



Play this next.

	fig. 3
	Fig. 1 2x
	fig. 3
	Fig. 1 2x
	fig. 3
	Fig. 1 2x

Then:

|----------------------------------|
|----------------------------------| 
|----------------------------------|
|-12-12-12-12-12-12-12-12--12-10---|

Instrumental:
              Fig. 4
|----------| |---------------------------------|
|----------| |---------------------------------| 
|----------| |---------------------------------|
|-3-5--3-5-| |-3-5-5-5-5-5-5-5-3-5-5-5-5-5-5-5-|
	
|------------------------------| 
|------------------------------|  
|------------------------------| 
|-0-3-5-0-3-5-0-3-5-0-3-5--3-5-| 

Play Fig. 4 six times, then

This 6x
|----------------------------| 
|----------------------------|  
|----------------------------| 
|-0-3-5-0-3-5-0-3-5-0-3-5----| 

Play fig. 1 4x

Play this part again:

	fig. 3
	Fig. 1 2x
	fig. 3
	Fig. 1 2x
	fig. 3
	Fig. 1 2x



Then:

|----------------------------------|
|----------------------------------| 
|----------------------------------|
|-12-12-12-12-12-12-12-12--12-10---|
  development and support by
dmitry ivanov