rock
 
|tablatures   |lyrics   |discussion forums   |more tabs @ XGuitar.com

Pearl Jam tabs

Black bass tab

Black
by
Pearl Jam
from PePPeRs o0@aol.com
real name scott b


intro                                                                     
-||--21-|-----------------------------------------------------------------
-||----\|\\---------------------------------------------------------------
-||-----|-----------------------------------------------------------------
-||-----|-----------------------------------------------------------------
                                                                          

                                                                          
--------------------------------------------------------------------------
--------------------------------------------------------------------------
--------------------------------------------------------------------------
--------------------------------------------------------------------------
                                                                          

verse   E7                   A                                            
-||-----------------------|------------------------------------|----------
-||-----------------------|------------------------------------|----------
-||------7--------7-----7\|---------------4--4--4--5--5--6--6--|----------
-||------------0----------|---5-----5--5-----------------------|----------
                                                                          

                                                                          
--------------------------------|------------------------------|----------
--------------------------------|------------------------------|----------
---------------7--------7-----7\|------------------------------|----------
---------------------0----------|--5--------5h7p5-----5-----4--|----------
                                                                          

                           pre-chorusC5                                   
----------------------------------5---------------5--|--------------------
-----------------------------------------------------|--------------------
----------------------------3---------3--3--3--3-----|--------------------
-----------------------------------------------------|--------------------
                                                                          

                               E5                                         
------5---------------------|------------------|--|-----------------------
----------------------------|------------------|--|-----------------------
3--------3--3--3--3--3--(3)/|------7-----------|--|-----------------------
----------------------------|---------0-----0--|--|-----------------------
                                                                          

             G5                                                           
---------------------12~~~-----|------------------------------------------
12h14---------12h14------------|------------------------------------------
-------------------------------|------------------------------------------
-------------------------------|------------------------------------------
                                                                          

                                             Chorus D5                    
-------------------------------------------------7-----------------|------
-------------------------------------------------------------------|------
----------------------------------------------5------5--5--5--5\3--|------
-------------------------------------------------------------------|------
                                                                          

                    E5                                                    
---5-------------|---------------|----------------------------------------
-----------------|---------------|----------------------------------------
3-----3--3--3/7--|---7-----------|--7--7--7--5----------------------------
-----------------|------0-----0--|----------------------------------------
                                                                          
  development and support by
dmitry ivanov