rock
 
|tablatures   |lyrics   |discussion forums   |more tabs @ XGuitar.com

Pearl Jam tabs

Animal guitar tab

Author/Artist: Pearl Jam
Title: Animal
Album: Vs.
Transcribed by: Evan Cowan and Chris Wilson (Last 7 lines of Solo)
Email: ecowan@uclink4.berkeley.edu

Special thanks to Ryan Benjamin for Mike's lightening run in the solo.
(08/19/99)

-|--------------------------|-----------------------|-------------------------
-|--------------------------|-----------------------|-------------------------
-|--------------------------|-----------------------|-------------------------
-|------------------7-------|-----------------------|-------------------------
-|-0--0-0-0--0--0-0---6-5p0-|-0--0-0-0--6p5p0-----5-|-------------------------
-|-5--5-5-5--5--5-5---------|-5--5-5-5--------5h7---|-------------------------
  Intro                   7x                                                  

-|----------------------------------|--------------------------|--------------
-|-7--7-7--x-7--7-------------------|--------------------------|--------------
-|-7--7-7--x-7--7-------------------|--------------------------|--------------
-|-7--7-7--x-7--7--3^-4^-5^-7-------|------------------7-------|--------------
-|-5--5-5--x-5--5-------------6-5p0-|-0--0-0-0--0--0-0---6-5p0-|--------------
-|----------------------------------|-5--5-5-5--5--5-5---------|--------------
                                                                              

-|-----------------------|---------------------------|------------------------
-|-----------------------|-7--7-7--x-7--7-7----------|------------------------
-|-----------------------|-7--7-7--x-7--7-7----------|------------------------
-|-----------------------|-7--7-7--x-7--7-7--7-------|------------------------
-|-0--0-0-0--6p5p0-----5-|-5--5-5--x-5--5-5----6-5p0-|------------------------
-|-5--5-5-5--------5h7---|---------------------------|------------------------
                                                                              

-|--------------------------------|--------------------|----------------------
-|--------------------------------|--------------------|----------------------
-|--------------------------------|--------------------|----------------------
-|--------------------------------|-----5---7----------|----------------------
-|-0----0-0--------0----0-0-----0-|-7---3---5--6-5-0-5-|----------------------
-|-5--x-5-5--x-x-x-5--x-5-5-x-x-5-|-5----------------3-|----------------------
 G1, fiddle with the A          4x G2                                         

-|-x-17--17--17--x-x-x-x-x-|------------------------|-------------------------
-|-x--x---x---x--x-x-x-x-x-|------------------------|-------------------------
-|-x-14--14--14--x-x-x-x-x-|-6-----9----11----4--6\-|-------------------------
-|-------------------------|-7----10----12----5--7\-|-------------------------
-|-------------------------|-7----10----12----5--7\-|-------------------------
-|-------------------------|-5-----8----10----3--5\-|-------------------------
 Chorus                4x   With intro riff, 8x                               

-|------------------------------|----------------|-----------------------|----
-|-10-10-8\5---10-10-8-\-5--5\3-|-7-7-7--x-7-7-7-|-----------------------|----
-|------------------------------|-7-7-7--x-7-7-7-|-----------------------|----
-|------------------------------|-7-7-7--x-7-7-7-|---------------7-------|----
-|------------------------------|-5-5-5--x-5-5-5-|-0--0--0--0--0---6-5p0-|----
-|------------------------------|----------------|-5--5--5--5--5---------|----
  Fill before second verse                                                    

-|-----------------------|----------------|------------------------------|----
-|-----------------------|-7-7-7--x-7-7-7-|------------------------------|----
-|-----------------------|-7-7-7--x-7-7-7-|------------------------------|----
-|-----------------------|-7-7-7--x-7-7-7-|------------------------------|----
-|-0--0--0-0-6p5p0-----0-|-5-5-5--x-5-5-5-|-0---0-------0------0-0-----0-|----
-|-5--5--5-5-------5h7---|----------------|-5-x-5-x-x-x-5-x--x-5-5-x-x-5-|----
                                            same as before                    

-|--------------------|-x-17--x-17--x--17--x-x-x-x-x-|------------------------
-|--------------------|-x--x--x--x--x---x--x-x-x-x-x-|------------------------
-|--------------------|-x-14--x-14--x--14--x-x-x-x-x-|------------------------
-|-----5---7----------|------------------------------|------------------------
-|-7---3---5--6-5-0-5-|------------------------------|------------------------
-|-5----------------3-|------------------------------|------------------------
                                                 8x                           

-|-------------------------20b22-20b22--20-17-|-------------------------|-----
-|-20b22-20b22-20b22r20-17--------------------|-20b22-20b22-20b22r20-17-|-----
-|--------------------------------------------|-------------------------|-----
-|--------------------------------------------|-------------------------|-----
-|--------------------------------------------|-------------------------|-----
-|--------------------------------------------|-------------------------|-----
 Solo                                                                         

-|-20b22-20b22--17-------|-------------------------20b22-20b22-17\-|----------
-|-----------------20-17-|-20b22-20b22-20b22r20-17-----------------|----------
-|-----------------------|-----------------------------------------|----------
-|-----------------------|-----------------------------------------|----------
-|-----------------------|-----------------------------------------|----------
-|-----------------------|-----------------------------------------|----------
                                                                              

-|-----5-------------------------------|------------------------------|-------
-|-------8-5-----5---------------------|-/8-8-8-8-8-8-8-8-8-8---------|-------
-|-7b9-------7b9---7-5-7-5-------5-----|-/9-9-9-9-9-9-9-9-9-9-5---5---|-------
-|-------------------------7-5-7---7---|------------------------7---7-|-------
-|-------------------------------------|------------------------------|-------
-|-------------------------------------|------------------------------|-------
                                                                              

-|------------------------------|---------------------------------------------
-|-/8-8-8-8-8-8-8-8-8-8---------|---------------------------------------------
-|-/9-9-9-9-9-9-9-9-9-9-5---5---|---------------------------------------------
-|------------------------7---7-|---------------------------------------------
-|------------------------------|---------------------------------------------
-|------------------------------|---------------------------------------------
                                                                              

-|--------------------------------------------------------------|-------------
-|--------------------------------------------------------------|-------------
-|-------------------------7-5b7r5-5---5-7-5--------------------|-------------
-|-------------------5h6h7-----------7-------7------------------|-------------
-|---------3---3-5/7---------------------------x-7-6-5\3-5b6r5--|-------------
-|--/3-3-5---5--------------------------------------------------|-------------
                                                                              

-|-------------------------------------------------------------------------|--
-|---------------------------------------------------------------17----17--|--
-|---------------------------------------------19----17-19-17-19----19-----|--
-|---------------------------17----17-17-19-17----17-----------------------|--
-|------15----15-17/19-17-19----19-----------------------------------------|--
-|--/17----17--------------------------------------------------------------|--
  |---------------------------RYAN'S-BIT---------------------------------->   

-|-----------17----17-20-17--20b22-20b22--|-----------------------------------
-|--20-17-20----20------------------------|-----------------------------------
-|----------------------------------------|-----------------------------------
-|----------------------------------------|-----------------------------------
-|----------------------------------------|-----------------------------------
-|----------------------------------------|-----------------------------------
  <--------------------------------------|                                    

-|-----8-8-8----8----------------------------------------------|--------------
-|-----------10---10-8---8-10-8---8h10-10-10-8h10-10-10-10vv\--|--------------
-|--0------------------9--------9------------------------------|--------------
-|--0----------------------------------------------------------|--------------
-|-------------------------------------------------------------|--------------
-|-------------------------------------------------------------|--------------
                                                                              

-|----------------------------|-------------------|---------------------------
-|--x--17-17-17-17------------|--8-8-8-8--10p8-8--|---------------------------
-|--x--17-17-17-17----17------|--9-9-9-9----------|---------------------------
-|--x--------------19----19\--|-------------------|---------------------------
-|----------------------------|-------------------|---------------------------
-|----------------------------|-------------------|---------------------------
                                                                              

-|--------------------------------|--------5-------------------------------|--
-|--8b10r8b10r8-10-8--------------|------5---5--5h8p5---5------------------|--
-|-------------------9-7-5h7-7-7--|--7b9--------------7---5h7p5-5-5--------|--
-|--------------------------------|---------------------------------7p5---5|--
-|--------------------------------|-------------------------------------7--|--
-|--------------------------------|----------------------------------------|--
                                                                              

-|-----------------|----------------------------------------------------------
-|-----------------|----------------------------------------------------------
-|-----------------|----------------------------------------------------------
-|-----------------|----------------------------------------------------------
-|--7-6-5\3--------|----------------------------------------------------------
-|----------5vvv\--|----------------------------------------------------------
                                                                              

-|----------------------|-----------------------------|-----------------------
-|----------------------|-----------------------------|-----------------------
-|-6-----9-----11----4--|-----------------------------|-----------------------
-|-7----10-----12----5--|-----------------------------|-----------------------
-|-7----10-----12----5--|-0---0-0-------0---0-0-----0-|-----------------------
-|-5-----8-----10----3--|-5-x-5-5-x-x-x-5-x-5-5-x-x-5-|-----------------------
 Under solo          6x   Outro, with fill 1        4x                        

-|-----------------|----|-----------------------------------------------------
-|-----------------|----|-----------------------------------------------------
-|-----------------|----|-----------------------------------------------------
-|-7---------------|-7\-|-----------------------------------------------------
-|-/---------------|-0--|-----------------------------------------------------
-|-----------------|-5\-|-----------------------------------------------------
 Fill 1(trem.pick)                                                            

  development and support by
dmitry ivanov