rock
 
|tablatures   |lyrics   |discussion forums   |more tabs @ XGuitar.com

Pearl Jam tabs

Animal bass tab

From: PePPeRso0@aol.com
Date: Tue, 7 Nov 1995 09:03:28 -0500

                                   Animal
                                        by
                                    Pearl Jam
                          from PePPeRs o0@aol.com

 intro and verse
||---------------------------------||
||*------------------------5h7-*||
||*-0-0-0-0-0---5h7---------*||
||---------------------------------||-
 chorus
  Am          C                      D      G          D         =

||---------------------------------------------------------------------||=
||--------------------------------5h7--------------------------------||
||-0-0-0----3--3-3---5h7---------5--5-5-----------------------||
||------------------------------------------------3--3-3---2-2--2-||

from PePPeRs o0@aol.com
real name scot b

--PART.BOUNDARY.0.870.emout05.mail.aol.com.815753005--
  development and support by
dmitry ivanov