rock
 
|tablatures   |lyrics   |discussion forums   |more tabs @ XGuitar.com

Pearl Jam tabs

All Those Yesterdays bass tab

PEARL JAM "ALL THOSE YESTERDAYS" -BASS TAB
--------------------
Tune normal  e a d g
Bass dosn't come in until the second verse 

verse:
|---------------------|
|-------------7-8-10--|
|--8-8-8h10p8---------|
|---------------------|

|---------------------|
|---------------------|
|--8-8-8h10p8---------|
|-------------8\------|

Bridge:
|-------------------------|
|-------------------------|
|-------------------------|
|-10-10-10-10-12-12-12-12-|

Chorus:
|--------------------------------------------------|
|-------------7-8-10-------------------------------|
|--8-8-8h10p8--------------------------------8-(8)\|
|--------------------10-10-10-10-12-12-12-12-------|

Outro:
|---------------------------|
|---------------------------|
|-----------------------6---|
|-1-1-1-3--4-4-6-4--6-6---6-|

|---------------------------|
|*-------------------------*|
|*----------------------6--*|
|-1-1-3-1--4-4-6-4--6-6---6-|  repeat until end

 h = hammeron
 p = pulloff
 ~ = vibrato
 / = slide up
 \ = slide down
(X)= hold note (let ring)

Tabbed by Mark Linwood

Hint suggesstions or comments to (Rlinwood@powerup.com.au)
I will reply to all emails
  development and support by
dmitry ivanov