rock
 
|tablatures   |lyrics   |discussion forums   |more tabs @ XGuitar.com

Ozzy Osbourne tabs

Tonight guitar tab

Tonight
From "Diary Of A Madman"
any comments email me at kidzkit3@hotmail.com


|-4-----4--5-----5--4h5p4-------------------------
|-5--5--5--7--------------7--2-----2--3------2----
|----------------------------2--2------------2----
|-------------------------------------------------
|-------------------------------------------------
|-------------------------------------------------

|-4-----4--5-----5--4h5p4----4-----4--5----5--5-|---7-9-7-------
|----5--------------------7-----5---------------|-10------10----
|-----------------------------------------------|---------------
|-----------------------------------------------|---------------
|-----------------------------------------------|---------------
|-----------------------------------------------|---------------

"now im back out on the..."
|----------2---------0------10-----9----7--------------------------
|-------0--0------0--0------10----10---10--------------------------
|----1----------------------9------9----9--------------------------
|------------------------------------------------------------------
|------------------------------------------------------------------
|-0----------------------------------------------------------------

|----------2---------0-----9--10---8-------------------------------
|-------0--0-----0---0----10--10---8-------------------------------
|----1---------------------9---9---9-------------------------------
|-------------------------------------2-4--5-4-2-------------------
|------------------------------------------------------------------
|-0----------------------------------------------------------------

"i hear the raging..."
|----------7-------------9--10----8--------------------------------
|----------7----9--7----10--10----8------PS--electric in-----------
|-------9-------------9--9---9----9----\\\\--------------------------
|----9-----------------------------------\\\\------------------------
|------------------------------------------\\\\----------------------
|-0----------------------------------------------------------------

|------------------------------------------------------------------
|------------------------------------------------------------------
|--9---------9----------4--------4---------6---------6------4---2--
|--9---------9----------4--------4---------6---------6------4---2--
|--7-----x-x-7----------2--------2---------4---------4------2---0--
|--0-----x-x-------------------------------------------------------

|----------------------------------------------------------------------
|-0------------------------------------------------------------------0-
|-2------------9-------9--------4-----4-------6-------6-----4----2---2-
|-2------------9-------9--------4-----4-------6-------6-----4----2---2-
|-0------------7-------7--------2-----2-------4-------4-----2----0---0-
|----------------------------------------------------------------------

Solo:
|---------------16-17-19p17p16-19p17p16-19^---19^-19~~~~--17-19-17-
|--------17~~~~----------------------------------------------------
|------16----------------------------------------------------------
|-17/18------------------------------------------------------------
|------------------------------------------------------------------
|------------------------------------------------------------------

|-17p16----16---------14\\~~~~~---------9-12p9----9-----------------
|-------17---17----------\\-------9/12^--------12---12p9------------
|--------------16---------\\-----------------------------11^---^^p9-
|----------------18-x------\\---------------------------------------
|---------------------------\\--------------------------------------
|------------------------------------------------------------------

|----------------------16-17-19p17p16-15~~~~~----------------------
|----------12-17~~~----------------------------17-15-17^~~~~-------
|-9--12/13---------------------------------------------------------
|------------------------------------------------------------------
|------------------------------------------------------------------
|------------------------------------------------------------------

|-------------------------------------------------------------------
|-----17^~~~~~~~~~--------------------------------16-17-16-17-19-17-
|---16---------------18-16----16-18-16~~~~~~---18-------------------
|-18-----------------------18-----------------x---------------------
|--------------------------------------------x----------------------
|-------------------------------------------------------------------

|----16----16-17-16-17-19/21--19~~~~~~~~~-----------------------16~~~-
|-19----19------------------------------------------------------------
|----------------------------------------------------13---------------
|------------------------------------------------------14-------------
|---------------------------------------------------------14----------
|---------------------------------------------------------------------

|------------------------------------------------------------------
|------------------------------------------------------------------
|-7---------5----------12--------12---8----------------3-3-------3-
|-7---------5----------12--------12---8----------------3-3-------3-
|-5---------3----------10--------10---6------5p3---3h5-----x-3h5---
|------------------------------------------------6-----------------

|----------------------1-------------------------------------------
|----------------------1-------6--------------6---------6----------
|-----3-------3--------2-------5--------------7---------7----------
|-----5-------5---3---------------5\\3---7-----7---------7----------
|-5---5-------5---3---------------------5---------x--x-------------
|-3---3-------3---1------------------------------------------------

Outro:
|-4/7p0--12p0-7p0-12p0-7p0-7p0-12p0-7p0-7p0-12p0-7p0-7p0-12p0-7p0-7p0-
|---------------------------------------------------------------------
|---------------------------------------------------------------------
|---------------------------------------------------------------------
|---------------------------------------------------------------------
|---------------------------------------------------------------------

|------------------------------------------------------------------
|------------------------------------------------------------------
|------------------------------------------------------------------
|-%-----%-----%------%----%----%----%----------^7^-(7)p5-----------
|---------------------------------------14\\--------------7~~~~~~~~-
|------------------------------------------------------------------

|------------------------------------------------------------------
|------------------------------------------------------------------
|------------------------------------------------------------------
|-7^------------p(7)p5----------------4-5---4-5-5/7~~~---7-5-4-5---
|----------------------7~~~~~~~~`---7-----7------------------------
|------------------------------------------------------on and on and on
  development and support by
dmitry ivanov