rock
 
|tablatures   |lyrics   |discussion forums   |more tabs @ XGuitar.com

Ozzy Osbourne tabs

Time After Time guitar tab

Time after time     -      OzZy


Tune down 1/2 step: Eb Ab Db Gb Bb Eb


|-------10---------9------9----------|-10-----9---------7---------------|
|-----------10-------10-------10-----|----7-------7-------7---10-----12-|
|-----9--------9--------9--------9---|------7-------7-------7-----7--0--|
|---7------------7-----------------0-|----------------0-----------------|
|-0----------------------------------|----------------------------------|
|------------------------------------|----------------------------------|

|-10----------9---------7-------5-----|------------------------------|
|----12-12\10---10-10\8---8---7---7---|---7---7-------8-----7--------|
|--------0----------0-------0-------0-|-----7----7------7------7---7-|
|-------------------------------------|-0-----------0-----0------0---|
|-------------------------------------|------------------------------|
|-------------------------------------|------------------------------|

|-------0----------------------|-------0------------------------|
|---------5--------------------|---------5----------------------|
|-----6-----6---7-----6------6-|-----6-----6--------------------|
|---7---------7---7------7-----|---7---------7---7-----7--------|
|-0-----------------0------0---|-0-------------5---5-4---4---7--|
|------------------------------|---------------------------7----|

"Time after time, i guess that love is blind..."
|-------0----------------------|-------0--------------0---------|
|---------5--------------------|---3------3---3---3-----3---3---|
|-----6-----6---7-----6------6-|-----0------0-------0-----0-----|
|---7---------7---7------7-----|-5--------------5---------------|
|-0-----------------0------0---|--------------------------------|
|------------------------------|--------------------------------|
"I couldnt read you mind line after line..."
|-------3-------------5---------|-------0-----------------------|
|---3-----3---------0---0-----0-|---------5---------------------|
|-------------0---5-------5-2---|-----6-----6---7-----6------5--|
|-4---4-----4---3---------------|---7---------7---7------7------|
|-------------------------------|-0-----------------0------0----|
|-------------------------------|-------------------------------|

"I can hear them whispering..."
|-------------volume up-----------------------------------------|
|volume down----------------------------------------------------|
|-----------------------7---------------------------------------|
|-5---------------------7-----------7-7---7-7------7------------|
|-5---------------------5-----------7-7---7-7------7------------|
|-3---------------------------------5-5---5-5---3^-5------------|
"Shadows in the rain..."
|--------------------------------|
|-------3-------------2----------|
|-----2-----2-------2-----2------|
|---2---------2---2---------2----|
|-0-------------0----------------|
|--------------------------------|

"Time after time....line after line, you broke me..."
|------------------------------------|--------------------------|
|------------3--------------------3--|--------------------------|
|------------0--------------------0--|-7------------------2-----|
|---2------0-0-----------2------0-0--|-7--PH-----PH-------2-----|
|---2--------------------2-----------|-5---4~~~~--2~~~~---0-----|
3-2-0------2-3-------3-2-0------2-3--|--------------------------|

"Day after day, i watched love fade away..."
|----------------------------------|--------------------------------|
|-14-------------14^---14----------|---------------14^---14---------|
|----------------------------14\12-|-12-----------------------12\11-|
|-11-------------11^---11----------|---------------11^---11---------|
|----------------------------12\10-|-10-----------------------10\9--|
|----------------------------------|--------------------------------|
"I wanted love to stay day after day..."
|----------------------------------------|----------------------|
|----------------------------------------|----------------------|
|-11------11^--^(11)----10------10^-^(10)|-9-/--/-18---18~~~~~~-|
|----------------------------------------|----------------------|
|--9-------9^--^(9)------8-------8^-^(8)-|-7-/--/-16---16~~~~~~-|
|----------------------------------------|----------------------|

Guitar Solo:
|-------------------------------|-------------------------------|
|-20--20--20--17----------------|-------------------------------|
|-19^-19^-19^-17^---------------|-------2-4-4^-^(4)p2-4~~~p2/---|
|-----------------19-17/19-17-\-|-2h4~~-------------------------|
|-------------------------------|-------------------------------|
|-------------------------------|-------------------------------|

|-------------------------|------------------------------------------|
|-5^-------^(5)~~~--------|------------------------------------------|
|-------------------------|-2----4^------2~~~------4^---4^-^(4)p2-4/-|
|---------------------2-4-|----4-------4---------4-------------------|
|-------------------------|------------------------------------------|
|-------------------------|------------------------------------------|

|-05050505050---------------05050505050--5~~-|-------------------|
|--------------------------------------------|-------------------|
|-69696969696---575757575---47474747474--0---|-16-14-16-14-------|
|--------------------------------------------|-------------16-14-|
|--------------------------------------------|-------------------|
|--------------------------------------------|-------------------|

|---------------------------------------------------------------------------|
|---------------------------------------------------------------------------|
|-16-14-16-14-------16-14-------16-14-------16-14-------16-14---------------|
|-------------16-14-------16-14-------16-14-------16-14-------16-14-16-14-16|
|---------------------------------------------------------------------------|
|---------------------------------------------------------------------------|

|---------------------14-/20-17---------------------------------------|
|------14-17-----14-17---------20-17-----20-17-----20^-^(20)-20^~~--\-|
|-14-16-----14-16-------------------19-17-----19-17-------------------|
|---------------------------------------------------------------------|
|---------------------------------------------------------------------|
|---------------------------------------------------------------------|

|---------------|-20^-20^-20-20^--20-20^--20-20^--20-20^-|
|-5--7---8--10--|----------------------------------------|
|-7^-9^-10^-12^-|----------------------------------------|
|---------------|----------------------------------------|
|---------------|----------------------------------------|
|---------------|----------------------------------------|

Acoustic Guitar:
|-----------------------|---------------|-------------------------|------0--|
|-2--2------------3-----|-----3---2-----|---2-------------3-------|-3----3--|
|-2----2------2-----2---|-------2-2-----|-----2-------2-----2-----|-2----2--|
|-2------2-5----5-----5-|--4------2-----|-------2-5-----5-----5-4-|-4----0--|
|-0---------------------|---------0-----|-0-----------------------|-0----0--|
|-----------------------|---------------|-------------------------|---------|

|-----------------------|---------------|-----------------------|----|
|---2-------------3-----|-----3---2-----|---2-------------3-----|--3-|
|-----2-------2-----2---|-------2-2-----|-----2-------2-----2---|--2-|
|-------2-5-----5-----5-|--4------2-----|-------2-5-----5-----5-|--0-|
|-0---------------------|---------0-----|-0---------------------|--0-|
|-----------------------|---------------|-----------------------|----|

This is a really cool song.     PEACE!!!!
  development and support by
dmitry ivanov