rock
 
|tablatures   |lyrics   |discussion forums   |more tabs @ XGuitar.com

Ozzy Osbourne tabs

Thunder Underground bass tab

Ozzy - Thunder Underground
Tabbed By: Hanger84
Email: azazel265-5@yahoo.com

Tuning: Drop D (D A D G)

Pretty simple song,I learned it on guitar and the bass just follows right along.

The harmonics durring the bridge are in various places between the 3rd and 5th fret,
not hard to figure out.

* = Harmonic

 Intro and Verse

G|----------------------------------|
D|----------------------------------|
A|----------------------------------|
D|-0-0---0-0---0-0---0-0----3h5-3h5-|


 Chorus

G|------------------|
D|------------------|
A|5--3--------------|
D|--------5h7-------|


 Bridge

G|----------------------------------|
D|----------------------------------|
A|----------------------------------|
D|-0-0-*-0-0-*-0-0-*-0-0----3h5-3h5-|
  development and support by
dmitry ivanov