rock
 
|tablatures   |lyrics   |discussion forums   |more tabs @ XGuitar.com

Ozzy Osbourne tabs

That I Never Had guitar tab

Tuning - dropped Db

^  = hammer-on / pull-off
<> = pinch harm
\\,/= slide
/\\ = bend


intro:

feedback  Riff 1                                             end
eb-(12)-||---------------------------------|------|-------------||
Bb------||---------------------------------|------|-------------||
Gb------||-2^0---------2^0---------2^0-----|-O-/--|-2------0----||
Db------||-2^0---------2^0---------2^0-----|--/-O-|-2------0----||
Ab------||---------------------------------|------|-0------x----||
Db------||-----2-0-2-0-----2-0-2-0-----2-0-|------|--------5----||

play riff 1 once more
Use 1st bar of Riff 1 to play along verse

  Riff 2 (chorus)
eb--------------|---------------------------------|---|---|---|---|
Bb--------------|---------------------------------|---|---|---|---|
Gb--------------|-2^0---------2^0---------2^0-----|-o-//--|-o-//--|
Db-5--5-5--5-5--|-2^0---------2^0---------2^0-----|--//-o-|--//-o-|
Ab-3--3-3--3-4--|---------------------------------|---|---|---|---|
Db--------------|-----2-0-2-0-----2-0-2-0-----2-0-|---|---|---|---|

          end
eb------------|
Bb------------|
Gb-2----0-----|
Db-2----0-----|
Ab-0----x-----|
Db------5-----|

play 1st bar of Riff 1 then play Fill 1

Fill 1
-----------------------------||
-----------------------------||
-2^0-------------------------||
-2^0-------------------------||
-----------------------------||
-----2-0-2-0-2-0-<2>~~~~~~~--||


Interlude:
   Riff 3                  x2  two guitars for one
eb--------------|-------------|-----0-------0-------0-------0---|
Bb--------------|-------------|-------0-------0-------0-------0-|
Gb--------------|-------------|---4-------2-------0-------2-----|
Db-5-----3------|-2-----3-----|-5-------3-------2-------3-------|
Ab-5-----3------|-2-----3-----|---------------------------------|
Db-5-----3------|-2-----3-----|-5-------3-------2-------3-------|

                                end
eb-----0-------0-------0-------0---|----------------------------
Bb-------0-------0-------0-------0-|----------------------------
Gb---4-------2-------0-------0-----|----------------------------
Db-5-------3-------2-------1-------|----------------------------
Ab---------------------------------|----------------------------
Db-5-------3-------2-------1-------|--0-------------------------

   Riff 4
eb--------------------------------------------------------------
Bb--------------------------------------------------------------
Gb-----------9/10\\9~~--13/14\\13~~--16/17\\16~~\\10----------------
Db--------------------------------------------------------------
Ab-2-2-0-2---7/ 8\\7~~--11/12\\11~~--14/15\\14~~-\\8----------------
Db-2-2-0-2------------------------------------------------------

                     sweep
eb----------------------12----------12--1515--12------------------------------
Bb----------20/\\/\\/\\---12--12-15-12---12----12--121512------------------------
Gb--------------------12------------------------------12/\\/\\/\\----------------
Db-------------------14-------------------------------------------------------
Ab-2-2-0-2--------------------------------------------------------------------
Db-2-2-0-2--------------------------------------------------------------------

eb--------------------------------------------------------------
Bb--------------------------------------------------------------
Gb-----------9/10\\9~~--13/14\\13~~--16/17\\16~~\\10----------------
Db--------------------------------------------------------------
Ab-2-2-0-2---7/ 8\\7~~--11/12\\11~~--14/15\\14~~-\\8----------------
Db-2-2-0-2---2\\-------------------------------------------------
             *second guitar plays this chord

                        ** there are many guitars here
eb------------------------/\\------------------------------------
Bb---------------------17/  --|\\--------------------------------
Gb-----------14/^^\\-12--------2  \\------------------------------
Db---------------------14~~~~-----------------------------------
Ab-2-2-0-2------------------------------------------------------
Db-2-2-0-2---2\\-------------------------------------------------

 Solo
 w/riff 2 (last time play C then A#)

eb----/\\------/\\--------------/\\-|--12--------------------------------/\\------
Bb-15/  -x-15/ --15^12-----14/  -|----1512-----------------/\\-15/\\-17//\\(17)~~
Gb--------------------14^12------|--------14/\\14/\\1215--14/  ------17/  ------
Db-------------------------------|--------------------17----------------------
Ab-------------------------------|--------------------------------------------
Db-------------------------------|--------------------------------------------

                      sweep
eb-----------------------12--------12----1512----171512--------12-------------
Bb----------------------12-1512--12--1512----1512------1512--12--1512---------
Gb---12151412--121514--12------15--------------------------14--------1412--12/\\
Db/14--------14-------14-------------------------------------------------14---
Ab----------------------------------------------------------------------------
Db----------------------------------------------------------------------------

             /\\
eb----/\\----/  ------------------------
Bb-15/  -15/    -----------------------
Gb---------------14^12^14--------------
Db------------------------14~~---------
Ab-------------------------------------
Db-------------------------------------

after solo play riff 1 w/fill 3 at the end
  Fill 3       * natural harms
eb------------<5>----------------||
Bb-------------<5>---------------||
Gb-2^0----------<5>--------------||
Db-2^0-----------<5>-------------||
Ab-------------------------------||
Db-----2-0-2-0-------<2>~~~~~~~--||

Use 1st bar of Riff 1 to play along verse
play chorus w/Fill 4

 Fill 4
eb-------------------------------||
Bb------------3-2~~~-------------||
Gb--3^2^0---0--------------------||
Db--------2----------------------||
Ab-------------------------------||
Db-------------------------------||

then play riff....i forgot which one ;)
these solos are playing in the end

solo1                                      /\\
eb-303030707070606060505050303030707070-10//\\
Bb--------------------------------------10/
Gb-------------------------------------------
Db-------------------------------------------
Ab-------------------------------------------
Db-------------------------------------------

solo2
eb----12-15^12-------------------------------
Bb---12-------15^12------------------17/\\/\\--
Gb--12-------------16^12^15^12^14^12---------
Db-14----------------------------------------
Ab-------------------------------------------
Db-------------------------------------------

solo3                                     x2
eb-12-/\\-121212-/\\-121212-/\\-----------------
Bb-15/  -----15/  -----15/  -----------------
Gb---------------------------151412----------
Db----------------------------------14/\\/\\---
Ab-------------------------------------------
Db-------------------------------------------

eb-17/\\/\\/\\--15/\\/\\--|\\------
Bb------------------15 \\/\\/\\-
Gb---------------------------
Db---------------------------
Ab---------------------------
Db---------------------------

eb----------|-------||-------
Bb----------|-------||-------
Gb-2----0---|-------||-------
Db-2----0---|-------||-------
Ab-0----x---|--0-2--||-------
Db------5---|--0-2--||-------
  development and support by
dmitry ivanov