rock
 
|tablatures   |lyrics   |discussion forums   |more tabs @ XGuitar.com

Ozzy Osbourne tabs

Slow Down guitar tab

Slow Down
From "Bark at the Moon"
any comments email me at kidzkit3@hotmail.com


Intro (distortion + flanger)
E-----------------------------------------------------------------------------
B-----------------------------------------------------------------------------
G-----------------------------------------------------------------------------
D-----------------------------------------------------------------------------
A-----------------------------------------------------------------------------
E-go up and down neck randomly doing harmonics--------------------------------

Fig. 1

      pm>>      pm>>>>>>>             pm>>>>>>
E---------7-7-------------------------------------------------------------------
B---------7-7-------------------------------------------------------------------
G-9-9-----9 9-------------9--9--------------------------------------------------
D-9-9-----9-9---------9-7-12-12---9-7---------5-4-------------------------------
A-7-7-----7-7--7-9-7------9--9----7-5---5-5-5-----5-----------------------------
E-0-0-0-0-0-0-------------------------------------------------------------------

Fig. 2:
      pm>>>>>>>>>>>>      >>>>>>>>>>>>>>>    >>>>>>>>>>>>>>>  >>>>>>>
E--------------------------------------------------------------------------
B--------------------------------------------------------------------------
G--------------------------------------------------------------------------
D-9-9---------------9-9----------------------------------------------------
A-7-7---------------7-7--------------4-4---------4-4-----------------------
E-0-0-0-0-0-0-0-0-0-0-0-0-0-0-0-0-0- 2-2-2-2-2---2-2-2-2-2-2-2-2-----------

Fill
E----------------------------------------------------------------------
B----------------------------------------------------------------------
G--------------------0-0-------------------4---4-----------------------
D-5-5--------------- 2-2-------------------4---4-------------- > hold
A-5-5----------------3-3-3-3-3-3-3-3-------2---2-------------- > chord
E-3-3-3-3-3-3-3--------------------------------------------------------

Chorus:
E---------------------------------------------------------------------
B---------------------------------------------------------------------
G-6-6---6-2---2----2-2--4---------------------------------------------
D-6-6---6-6---2--- 2-2--4 >hold
A-4-4---4-4---0----0-0--2 >chord
E---------------------------------------------------------------------

Keyboard During Chorus (arr. for guitar)
E-7-5-4------------------------------------------------------------
B ------7-5-4------------------------------------------------------
G--------------6---------------------------------------------------
D------------------------------------------------------------------
A------------------------------------------------------------------
E------------------------------------------------------------------



, then

E--------------------------------------------------------------------
B--------------------------------------------------------------------
G--------------------------------------------------------------------
D-9-9---12-12---14-14----11-11---------------------------------------
A-7-7---9-9-----10-10----12-12---------------------------------------
E-0-0----------------------------------------------------------------

then
      pm>>>>>>>>>>>>>>>>>>>>>>      pm>>>>>>>>>>>>>>>>>>>>
E----------------------------------------------------------------------
B----------------------------------------------------------------------
G----------------------------------------------------------------------
D-3-3-----------------------repeat---7-7-------------------------------
A-3-3--------3-2-0-------------------7-7-------5-----------------------
E-1-1-1-3-1--------3-1-0-------------5-5-5-7-8---8-8-7-7-5-------------

Solo:
E------------------------------------------------->This-------------
B------------------------------------------------->Part-------------
G------------------------------------------------->Was--------------
D-7-7-9-9-10-10-9-9-7-7-9-9-10-9-9-7-7-7-7-7-7---->Hard-------------
A-0-0-0 0-0--0--0-0-0-0-0-0-0--0-0-0-0-0-0-0-0---->To-Figure-Out----
E------------------------------------------------->-----------------

E-17^-17^-17-15---------15--20------15-20-------15-20-------15-20-
B--------------------18----------18-----------18---------18-------
G-----------------15----------15-----------15---------15----------
D-----------------------------------------------------------------
A-----------------------------------------------------------------
E-----------------------------------------------------------------

E-20^--20-19-20-19----17^----------------------------------------------
B-------------------------20---17-17-18-17-----------17-18-17----------
G-------------------------------------------19 19 17----------19-19-17-
D----------------------------------------------------------------------
A----------------------------------------------------------------------
E----------------------------------------------------------------------

E------------------------------------------------------------------------
B-17-18-17---------17-18-17----------17-18-17-17-------------------------
G---------19-19-17----------19-19-17-------------19-19-17-19-17-16-17-16-
D------------------------------------------------------------------------
A------------------------------------------------------------------------
E------------------------------------------------------------------------

                                                         art. harmonics
E-----------------------------------------------------------------------
B---------------17----------------17------------------------------------
G------17-19-----------17-19--------19^--19-18-19-18--------------------
D-20---------------20---------------------------------19^----------19---
A-----------------------------------------------------------------------
E-----------------------------------------------------------------------

Post solo Interlude:
E----------------------------------------------------------------------
B----------------------------------------------------------------------
G----------------------------------------------------------------------
D------10-----repeat 8x------------------------------------------------
A------ 7--------------------------------------------------------------
E-0-0-0-0--------------------------------------------------------------




  development and support by
dmitry ivanov