rock
 
|tablatures   |lyrics   |discussion forums   |more tabs @ XGuitar.com

Ozzy Osbourne tabs

Sin guitar tab

Tune down 1/2 step: Eb Ab Db Gb Bb Eb

Intro:
|---2-----------------------------|---2-------------------0------|
|-3---3-----2-------3-------3-----|-----3-----2-------3----------|
|-4-----4-----2-------0-------0---|-------4-----2-------0--------|
|-4-------------4-------4-------4-|---------------4--------------|
|-2-------0-----------------------|-2-------0--------------------|
|-----------------3---------------|-----------------3------------|

|---2---------------------0--------|-----------------------|
|-3---3-----2-------3-----0-strum--|--------3---------2----|
|-4-----4-----2-----0-----0--------|-----------0------2----|
|-4-------------4---4-----2--------|-----------0------2----|
|-2-------0---------------2--------|------------------0----|
|-----------------3---2---0--------|-0-2-3-----------------|

Intro Lead:
|------------------|-----------------------------|---------
|------------------|----10^-^10-7--10--10^-~~~~~~~~~~~~~~--
|----7-9-9^~~~~~~--|-^9--------------------------|---------
|-/9---------------|-----------------------------|---------
|------------------|-----------------------------|---------
|------------------|-----------------------------|---------

|---12^-^12--10h12--12^~~~~~~~~-10-12-12^^12-10^^10--------|
|-x-------------------------------------------------12~~~~-|
|-x--------------------------------------------------------|
|----------------------------------------------------------|
|----------------------------------------------------------|
|----------------------------------------------------------|

|--------------------------|-------------------------------
|--------------------------|
|------------------7-------|
|-----------7--9-7---7-9^--|
|-----5-7/9----------------|
|-5-7--------------end intro


|---------------0-----------------------------------0------|
|---------------0-----------5-----------------------0------|
|----2----------------------4---4----------2---------------|
|-0--2------2---2-----------2---4-------0--2-----2--2----5-|
|-0--0------2---2---------------2-------0--0-----2--2----3-|
|-----------0---0--------------------------------0--0------|

"A psycho driver..."                    "Silence broken..."
|---PM.............................---|-0--------------------------|
|-------------------------------------|-0--------------------------|
|-4-----------------------------------|-----------2--------5-------|
|-4---------------------------------0-|-2---------2--------5-------|
|-2--2-2-2-2-2-2-2-2-2-2-2-2-2-2-2--0-|-2---------0----0-0-3-------|
|-------------------------------------|-0--------------------------|

"I can hear them, i can hear them...someone wake me..."
|-------0---------|-------0--------|-------0------|---------------------------|
|-3---------3-----|----------0-----|----------3---|---------------------------|
|-2-----------2-0-|-----2------0---|-----4------4-|-----4-----4-----4-----0h4-|
|-0--0----------0-|---2----------0-|---4----------|-----5-----5-----5-----0h4-|
|-0--0------------|-4--------------|-2------------|-----5-----5-----5-----0h2-|
|-----------------|----------------|--------------|-0-0-3-x-x-3-x-x-3-x-x-----|

|------------------|------------------|------------------|
|------------------|---------22-------|------------------|
|---------77-------|-----22------22---|---------44-------|
|-----77------77---|---22--22--22--22-|-----44------4422-|
|-5555--55--55--55-|-44---------------|-2222--22--22-----|
|------------------|------------------|------------------|

                   1)================================|
|------------------|------------------|--------------|
|------------------|------------------|--------------|
|------------------|------------------|--------------|
|------------------|------------------|--------------|
|-----55--44--22---|-----44--775577---|-779955774455-|
|-3333--33--33--33-|-5555--55------55-|--------------|

2)==========================
|----------------|-----------------|
|----------------|-----------------|
|----------------|-----------------|
|----------------|-----------------|
|-----44--5544---|-44--55--44--55--|
|-5555--55----55-|---55--55--55--55|


"Whoa...who turned out the lights..."
|-------------------------------|-----------------------------|
|-------------------------------|-----------------------------|
|-4-4---x-2-2-----------------2-|-4-4--x-2-2----------------5-|
|-4-4---x-2-2-----------------2-|-4-4--x-2-2----------------5-|
|-2-2---x-0-0------5---4---2--0-|-2-2--x-0-0------5---4---2-3-|
|--------------2/3---3---3------|-------------2/3---3---3-----|
"Whoa....it wasnt meant to be
|----------------------------------------------------------
|----------------------------------------------------------
|-4-4--x-2-2-----------------------------------------------
|-4-4--x-2-2-----------------------------------------------
|-2-2--x-0-0------5---4---2-5-5-4--------------------------
|-------------2/3---3---3---3-3-2--x-x---------------------

"I cant take this alone, dont leave me on my own tonight...."
|----------------------------------------------------------------
|-5---------5-7-------8---/10-10-10-10-10-10-10-10-10-10---------
|-4---------4-6-------7---/9--9--9--9--9--9--9--9--9--9----------
|-2---------2-4-------5---/7--7--7--7--7--7--7--7--7--7----------
|----------------------------------------------------------------
|----------------------------------------------------------------

|--------------------------------PM............------------
|--------------------7--8----------------------------------
|------------------x-6--7-------2--------------------------
|-5-4-3----2-------x-4--5-------2-2-2-2-2-2-2-2------------
|-5-4-3----2-------x------------0-0-0-0-0-0-0-0------------
|-3-2-1----0-----------------------------------------------

Solo:
|--------------------|------------------PH------|
|-7^---7^-7^---7^-7^-|---7^-7^---7^-----9^-^9p7-|
|-7^---7^-7^---7^-7^-|---7^-7^---7^-----9^-^9p7-|
|----9-------9-------|-9-------9----------------|
|--------------------|--------------9-9---------|
|--------------------|--------------------------|

|-PH---------------|-7---------7---------------------------|
|--9^-^9~~--10^~~~-|---10p7----7---------------------------|
|--9^-^9-----------|--------9^---9^-^9-7---9---7^----------|
|------------------|---------------------9---9-----9-7-----|
|------------------|-----------------------------------9---|
|------------------|---------------------------------------|

|---------------------|------------------------|
|-7^-7^---7^-7^---7-7-|---7^-7^---7^----7\\-----|
|-7^-7^---7^-7^---7-7-|---7^-7^---7^----7\\-----|
|-------9-------9-----|-9-------9-----9--------|
|---------------------|--------------------/14-|
|---------------------|------------------------|

|----------------------------------------14~~-|
|----------12~~-----------15~~--17-15---------|
|-14-11----9-----16-14----11----------16-14---|
|-12--9-14-------14-12-16-------16-14---------|
|-------12-------------14-------------16------|
|---------------------------------------------|
                                ~~~~~~~~~~~~~~~~~~~~~~~~~~~~~~~~~~
|----------17------------19~~~-|-12131210----12131210----12131210-|
|-19-17---------22-19----------|---------1210--------1210---------|
|-------19-16---------21-19----|----------------------------------|
|-19-16---------21-19----------|----------------------------------|
|-------19------------21-------|----------------------------------|
|------------------------------|----------------------------------|

|-----12131210----1210-----12^-^12p10-|-12~~\\x-22^---22p19-|
|-1210--------1210----1210-12^-^12----|-----\\x-------------|
|-------------------------------------|--------------------|
|-------------------------------------|--------------------|
|-------------------------------------|--------------------|
|-------------------------------------|--------------------|

|-22-19----------19-22-19----------------------------------|
|-------22-19-22----------22-19----------------------------|
|-------------------------------21-19-21-19-------21^--\\---|
|-------------------------------------------21-19----------|
|----------------------------------------------------------|
|----------------------------------------------------------|

|---------------------|--------------------|
|-22-21-19------------|--------------------|
|----------22-21-19^--|-PH-----------------|
|---------------------|-21-19^-------------|
|---------------------|--------21-20-19-17-|
|---------------------|--------------------|

|-------------------------------1717171917--17--17-22^~~~~\\-|
|-------------------171717191719----------19--19------------|
|-------161616191619----------------------------------------|
|-191619----------------------------------------------------|
|-----------------------------------------------------------|
|-------------------------------------------end of solo-----|


Outro Solo:
|----------------------------|---------------------------------|
|-9^-^9-----7-10-7----7-10p7-|----7----------------------------|
|-9^-^9^~~---------9^--------|-10---9^--7---9---7^-------------|
|----------------------------|------------9---9----9p7---7-9-7-|
|----------------------------|-------------------------9-------|
|----------------------------|---------------------------------|

|-------------------|------------------------|
|-------------------|10--10-10---------------|
|-PH---------7--9^--|-9^--9^-9^-^9p7-9^~~-/--|
|-9~~--------7------|------------------------|
|------7-8-9--------|------------------------|
|-------------------|------------------------|

|--------------141914--141714--141914--141714\\---17-----/22-19----------x19------|
|-----22-\\-/17-------18------18------18-------/19--19-16------22-19-22^-x--22p19-|
|-21^----\\-----------------------------------------------------------------------|
|--------------------------------------------------------------------------------|
|--------------------------------------------------------------------------------|
|--------------------------------------------------------------------------------|

|-22^-22^-19-----19------|-22^-22^-19--------|
|---------22^------22p19-|---------22^-22^~~-|
|------------------------|-------------------|
|------------------------|-------------------|
|------------------------|-------------------|
|------------------------|-------------------|

|---------------------19-------------------------|
|-22^-^22-192219----19--22p19-----19-------------|
|---------------21^----------21^--21^-^21p19-----|
|-------------------------------------------21---|
|------------------------------------------------|
|------------------------------------------------|

|-----------------------------------------|
|-----------------------------------------|
|-21--19^-----------------19-21-21--19-21-|
|---21----21-19--21--19-21--------21------|
|--------------21--21---------------------|
|-----------------------------------------|

|------------------------------------------------19-22^-|
|--19----191922p19-----19-------------------19h22-------|
|--21^----------21^----21^-^21p19--21--19-21------------|
|--------------------------------21--21-----------------|
|-------------------------------------------------------|
|-------------------------------------------------------|
  development and support by
dmitry ivanov