rock
 
|tablatures   |lyrics   |discussion forums   |more tabs @ XGuitar.com

Ozzy Osbourne tabs

See You On The Other Side bass tab

Tabbed by: Mr. Tinkertrain 
Artist: OzzY Osbourne
Song: "See you on the Other Side"
Album: Ozzmosis

Tune Down 1/2 Steps (Eb, Ab, Db, Gb)

Intro:
|-----------------------|
|----------------------*|
|----------------------*|
|-3-3-3-R-3-3-3-R-3-3-3-|

verse/solo
|---------------------------------|
|--------------------------------*|
|--------------------------------*|
|-3-3-3-R-3-3-3-R-0-0-0-R-6-6-6-R-|

Chorus: I can't seem to see you baby...
|-----------------|-----1------------|---------------------|
|-----------------|-1-1---1---5-5----|---------------------|
|-0----3----------|------------------|---------------------|
|--------------3--|------------------|-1/3-3-3-3-3-3-3--1--|

yes I'll see you, see you on the other side...
|---------------------|-----------------|
|---------------------|--------5-5-5----|
|-0------2--3-------0-|-----------------|
|---------------------|-0---------------|
That's about it I couldn't figure out the outro.


  development and support by
dmitry ivanov