rock
 
|tablatures   |lyrics   |discussion forums   |more tabs @ XGuitar.com

Ozzy Osbourne tabs

Paranoid guitar tab

PARANOID
As recorded by Ozzy Osbourne / Randy Rhoads
(From the 1987 Album TRIBUTE)

Words and Music by Iommi, Osbourne, Ward, Butler
Transcribed by Hair_rocker@yifan.net

Gtr I (E A D G B E) - 'Randy'

   Intro
    Fast Rock Q=172
   4/4
    Gtr I
                                     3x
||----------------|------------------||---------------|-----------------||
||o---------------|-----------------o||---------------|-----7-8-----7h8-||
||--9---9-(9)--9--|-----7h9-----7h9--||-9---9-(9)--9--|-7---7-9-7h9-7h9-||
||--9---9-(9)--9--|-7-9-----7-9------||-9---9-(9)--9--|-7-9-----7h9-----||
||o-7---7-(7)--7--|-----------------o||-7---7-(7)--7--|-----------------||
||--0---0-(0)--0--|------------------||-0---0-(0)--0--|-----------------||


 1st Verse
|-----------------|-----------------|-----------------|
|-----------------|-----------------|-----------------|
|-----9-------9---|-----9-----------|-----7-------7---|
|-----9-------9---|-----9-----------|-----7-------7---|
|-----7-------7---|-----7-------5h7-|-5-5---5-5-5---5-|
|-0-0---0-0-0---0-|-0-0---0-5h7-----|-----------------|


|---------------------|-----------------|-----------------|
|-------------8h9p8h9-|-----------------|-----------------|
|-7-------------------|-----9-------9---|-----9-----------|
|-5-7-(7)--9----------|-----9-------9---|-----9-----------|
|---5-(5)--7----------|-----7-------7---|-----7-------5h7-|
|---------------------|-0-0---0-0-0---0-|-0-0---0-5h7-----|


                                       \0.5______/0.5____|
|-----------------|------------------|-----------------------|------------|
|-----------------|------------------|-----------------------|------------|
|-7----7-(7)---7--|-7-----------0----|-----------------------|-5----7p==0-|
|-7----7-(7)---7--|-5-7-(7)--9--0----|-----------------------|-5----7p==0-|
|-5--5-5-(5)-5-5--|---5-(5)--7-------|-----------------------|-3----5-----|
|-----------------|---------------/3p|=0--------(0)-----(0)--|------------|


|-----------------------|----------------------|-------------|-------------|
|-----------------------|----------------------|-------------|-------------|
|---------------[9]b12==|=(9)--(9)r=(9)--(9)\--|-------------|-5----7p==0--|
|-2-----------x---------|----------------------|-2-----------|-5----7p==0--|
|-2---------x-----------|----------------------|-2-----------|-3----5------|
|-0-------x-------------|----------------------|-0----19\----|-------------|


                          2nd Verse
|----------|------------||----------------|-----------------|
|----------|------------||----------------|-----------------|
|----------|------------||-----9-------9--|-----9-----------|
|-2--------|------------||-----9-------9--|-----9-----------|
|-2--------|------------||-----7-------7--|-----7-------5h7-|
|-0--------|-19\--------||-0-0---0-0-0----|-0-0---0-5h7-----|


|---------------|-----------------|----------------|-----------------|
|---------------|-------------7h8-|----------------|-----------------|
|-----7------7--|-7-----------7---|-----9-------9--|-----9-----------|
|-----7------7--|-5-7-(7)--9------|-----9-------9--|-----9-----------|
|-5-5----5-5----|---5-(5)--7------|-----7-------7--|-----7-------5h7-|
|---------------|-----------------|-0-0---0-0-0----|-0-0---0-5h7-----|


                                                ~~~
|---------------|-----------------|----------|---------------|
|---------------|-----------------|----------|---------------|
|-----7------7--|-7---------------|-4--------|-(4)-----------|
|-----7------7--|-5-7-(7)--9------|-2--------|-(2)-----------|
|-5-5----5-5----|---5-(5)--7------|-2--------|-(2)-----------|
|---------------|-------------x\--|-0--------|-(0)------12\--|


|----------|-------------|----------|---------|
|----------|-------------|----------|---------|
|-7--------|-(7)---------|----------|---------|
|-7--------|-(7)---------|-9--------|-0tr2----|
|-5--------|-(5)---------|-7--------|---------|
|----------|-----------0-|-0--------|---------|


|----------|----------------|-----------------|-----------------|
|-3--------|-(3)---x--------|-----------------|-----------------|
|-2--------|-(2)---x--------|-----9-------9---|-----9-----------|
|-0--------|-(0)------------|-----9-------9---|-----9-----------|
|----------|----------------|-----7-------7---|-----7-------5h7-|
|----------|---------17\----|-0-0---0-0-0---0-|-0-0---0-5h7-----|


                                    ~~~
|-----------------|---------------------|-----------------|-----------------|
|-----------------|-8-7-(7)-------------|-----------------|-----------------|
|-----7-------7---|-7-7-(7)--9-7b9r(7)--|-----9-------9---|-----9-----------|
|-----7-------7---|-9-7-(7)--9----------|-----9-------9---|-----9-----------|
|-5-5---5-5-5---5-|----------7----------|-----7-------7---|-----7-------5h7-|
|-----------------|---------------------|-0-0---0-0-0---0-|-0-0---0-5h7-----|


                                          3rd Verse
|-----------------|---------------------||-----------------|-----------------|
|-------------7-7-|-8-----------8h9p8h9-||-----------------|-----------------|
|-----7-------7-7-|-7-7-(7)--9----------||-----9-------9---|-----9-----------|
|-----7-------7-7-|-5-7-(7)--9----------||-----9-------9---|-----9-----------|
|-5-5---5-5-5-----|---5-(5)--7----------||-----7-------7---|-----7-------5h7-|
|-----------------|---------------------||-0-0---0-0-0---0-|-0-0---0-5h7-----|


|-----------------|-----------------|-----------------|-----------------|
|-----------------|-7-----------8\--|-----------------|-----------------|
|-----7-------7---|-7-7-(7)--9--7\--|-----9-------9---|-----9-----------|
|-----7-------7---|---7-(7)--9------|-----9-------9---|-----9-----------|
|-5-5---5-5-5---5-|---5-(5)--7------|-----7-------7---|-----7-------5h7-|
|-----------------|-----------------|-0-0---0-0-0---0-|-0-0---0-5-7-----|


|----------------|-----------------|
|----------------|-----------------|
|----7-------7---|-5-7-(7)S=9S=12--|
|----7-------7---|-5-7-(7)S=9S=12--|
|-5----5-5-5---5-|-----------------|
|----------------|-----------------|


   Guitar solo
||-----------12----------12----------12----------12--||
||o-------12----------12----------12----------12----o||
||--14b16-------14b16-------14b16-------14b16--------||
||---------------------------------------------------||
||o-------------------------------------------------o||
||---------------------------------------------------||


|----------------------13----------14-------------|
|-------12-15p12----13----16p13-------17p14----15-|
|-14b16----------15-------------16----------17----|
|-------------------------------------------------|
|-------------------------------------------------|
|-------------------------------------------------|


      ~~~~~~~~~~~~~~~~~~~~~
|-15-----------------------12-14-|
|----17b20==(17)----(17)r\-------|
|--------------------------------|
|--------------------------------|
|--------------------------------|
|--------------------------------|


|-16-12-16-16-15-14-12-14-15-14-12-14-15-14-17-14-|
|-------------------------------------------------|
|-------------------------------------------------|
|-------------------------------------------------|
|-------------------------------------------------|
|-------------------------------------------------|


|-15-14-12-14-15p14-17p14s15-------22-18h19p|
|----------------------------15s18----------|
|-------------------------------------------|
|-------------------------------------------|
|-------------------------------------------|
|-------------------------------------------|


|-18-20-18-----------------------------------------|
|----------20-18h19p18----18-----------------------|
|----------------------20----20p18----18-----------|
|----------------------------------20----20p18-----|
|----------------------------------------------21--|
|--------------------------------------------------|


            ~~~~~~~                     T               T
|--------------------------------|--------------------------|
|--------------------------------|--------------------------|
|---------------------------2b3==|=(2)--4p2-(2)r(2)b4==10p2r|
|-18-----------------------------|--------------------------|
|----21p18-20-(20)--(20)\--------|--------------------------|
|--------------------------------|--------------------------|


             T
|--------------------------------------------|
|--------------------------------------------|
|-(2)b4==(2)-9p2r(2)b4==(2)r(2)p0h2p0h2p0/---|
|------------------------------------------x-|
|--------------------------------------------|
|--------------------------------------------|


           T             ~~~~~~~~~~~~~~~~                  ~~~~
|-------------------------------|-----------------------------12-|
|-----------------------16b17===|=(16)rp0----12----15b17-(15)----|
|-14b16===17p14r(14)p12S15b16===|=(15)rp0-12----12---------------|
|-------------------------------|--------------------------------|
|-------------------------------|--------------------------------|
|-------------------------------|--------------------------------|


|-15p12h14p12-15p12-------------------------------|
|-------------------15-12-12h13p12----12----------|
|----------------------------------15----13p11h12p|
|-------------------------------------------------|
|-------------------------------------------------|
|-------------------------------------------------|


                                 ~~~~~~~~~~~~~
|---------------------------------------------|
|---------------------------------------------|
|-11----11----------------11h14s16-(16)-(16)\-|
|----14----14p11h12p11h14---------------------|
|---------------------------------------------|
|---------------------------------------------|


                                                  ~~~~~
|-------------------------|---------------------------------||----------------|
|-------------------------|-7h8h10-10b12==(10)--(10)r-------||----------------|
|-------------4h5h7-6h7h9-|---------------------------------||------------9---|
|-------4h5h7-------------|---------------------------------||-----9------9---|
|-4h5h7-------------------|---------------------------------||-----7------7---|
|-------------------------|----------------------------12\--||-0-0----0-0---0-|


|---------------|-----------------|----------------|-----------------|
|---------------|-----------------|----------------|-----------------|
|---------------|-----7-------7---|-7--------------|-----9-------9---|
|----9----------|-----7-------7---|-5-7-(7)--9\----|-----9-------9---|
|----7------5h7-|-5-5---5-5-5---5-|---5-(5)--7\----|-----7-------7---|
|-0-----5h7-----|-----------------|----------------|-0-0---0-0-0---0-|


                                                             4th Verse
                                               ~~~~~~~~~~~~
|-----------------|-----------------|----------------------||-----------------|
|-----------------|---------------7-|-8--------------------||-----------------|
|-----9-----------|-----7-------7-7-|-7-7-(7)--9--(9)-(9)\-||-----9-------9---|
|-----9-----------|-----7-------7-7-|-5-7-(7)--9--(9)-(9)\-||-----9-------9---|
|-----7-------5-7-|-5-5---5-5-5-----|----------------------||-----7-------7---|
|-0-0---0-5h7-----|-----------------|----------------------||-0-0---0-0-0---0-|


|-----------------|-----------------|-----------------|-----------------|
|-----------------|-----7-------7---|-----------------|-----------------|
|-----9-----------|-----7-------7---|-7---------------|-----9-------9---|
|-----9-----------|-7---7---7---7---|-5-7-(7)---------|-9---9-------9---|
|-----7-------5h7-|-5-5---5-5-5---5-|---5-(5)--[7]----|-7---7-------7---|
|-0-0---0-5h7-----|-----------------|-----------------|-0-0---0-0-0---0-|


                                                        \0.25_______________
|-----------------|----------------|------------------|--------------------|
|-----------------|----------------|------------------|--------------------|
|-----9-----------|-----7-------7--|-7----------------|--------------------|
|-----9-----------|-----7-------7--|-5-7-(7)--9-------|--------------------|
|-----7-------5h7-|-5-5---5-5-5----|---5-(5)--7-------|--------------------|
|-0-0---0-5-7-----|----------------|-------------15\--|-0---------(0)--3-0-|


|-------------|--------------|-----------------|--------------|
|-------------|--------------|-----------------|--------------|
|-5---x-7---0-|--------0-<5>-|-(<5>)-----------|------------0-|
|-5---x-7---0-|-2------0-----|-----------------|-2------(2)-0-|
|-3---x-5-----|-2------------|------------10\--|-2------(2)---|
|-------------|-0------------|-----------------|-0------------|


                                                        5th Verse
|-------------|-----------|---------------------------||-----------------|
|-------------|-----------|---------------------------||-----------------|
|-5---x-7---0-|-----------|---------------------------||-----9-------9---|
|-5---x-7---0-|-2-------2s|=16b19--(16)--(16)--(16)\--||-----9-------9---|
|-3---x-5-----|-2---------|---------------------------||-----7-------7---|
|-------------|-0---------|---------------------------||-0-0---0-0-0---0-|


|-----------------|-----------------|---------------------|-----------------|
|-----------------|-----------------|-8-7-(7)-----7h8p7h8-|-----------------|
|-----9-----------|-----7-------7---|-7-7-(7)--9----------|-----9-------9---|
|-----9-----------|-----7-------7---|---7-(7)--9----------|-----9-------9---|
|-----7-------5h7-|-5-5---5-5-5---5-|---------------------|-----7-------7---|
|-0-0---0-5h7-----|-----------------|---------------------|-0-0---0-0-0---0-|


|-----------------|-----------------|-------------------|-----------------|
|-----------------|-----------------|-8-----------------|-----------------|
|-----9-----------|-----7-------7---|-7-7-(7)--9------x-|-----9-------9---|
|-----9-----------|-----7-------7---|-5-7-(7)--9------x-|-----9-------9---|
|-----7-------5-7-|-5-5---5-5-5---5-|---5-(5)--7--10\---|-----7-------7---|
|-0-0---0-5-7-----|-----------------|-------------------|-0-0---0-0-0---0-|


                                        ~~~~~~
|-----------------|-----------------|------------------|-----------------|
|-----------------|-----------------|-8-7-(7)----------|-----------------|
|-----9-----------|-----7-------7---|-7-7-(7)--9-------|-----9-----7s6s7-|
|-----9-----------|-----7-------7---|---7-(7)--9-------|-----9-----7s6s7-|
|-----7-------5h7-|-5-5---5-5-5---5-|------------------|-----7-----------|
|-0-0---0-5-7-----|-----------------|-------------15\--|-0-0---0-0-------|


                                        ~~~~~~
|-----------------|-----------------|---------------*|
|-----------------|-----------------|---------------*|
|-----9-----------|---7-7---7-7-7---|---------------*|
|-----9-----------|---7-7---7-7-7---|----------9----*|
|-----7-------5h7-|-5-----5-------5-|-5-4-(4)--7----*|
|-0-0---0-5h7-----|-----------------|---------------*|


Tablature Legend
----------------
 h   - hammer-on
 p   - pull-off
 b   - bend
 pb  - pre-bend
 r   - bend release (if no number after the r, then release immediately)
 /\  - slide into or out of (from/to "nowhere")
 s   - legato slide
 S   - shift slide
  - natural harmonic
[n]  - artificial harmonic
n(n) - tapped harmonic
 ~   - vibrato
 tr  - trill
 T   - tap
 TP  - trem. picking
 PM  - palm muting
\n/  - tremolo bar dip; n = amount to dip
 \n  - tremolo bar down
 n/  - tremolo bar up
/n\  - tremolo bar inverted dip
 =   - hold bend; also acts as connecting device for hammers/pulls
 <>  - volume swell (louder/softer)
 x   - on rhythm slash represents muted slash
 o   - on rhythm slash represents single note slash

Misc Legend
-----------
 |  - bar
||  - double bar
||o - repeat start
o|| - repeat end
*|  - double bar (ending)
 :  - bar (freetime)
 $  - Segno
 &  - Coda
  development and support by
dmitry ivanov