rock
 
|tablatures   |lyrics   |discussion forums   |more tabs @ XGuitar.com

Ozzy Osbourne tabs

Over The Mountain guitar tab

From: Aaron Pisarek 
Artist:	Ozzy Osboune
Album:	Diary Of A Madman
Song:	Over The Mountain

     I'm 13 and have been playing guitar for three years. So.... it all started out when I was looking through and saw no "Over The Mountain" tabs here at Rock Magic, so I typed this out just cuz I'm really sick and stayed home for school for the past week and got board. 
     PM. = Palm Mute
     [   = Pause 
     p   = Pull Off
     h   = Hammer On 
     :   = End Of Riff And I Tell You How Many Times To Play It

Intro Riff....

          PM...................................................

e---------------------------------------------------------------:---------------
B---------------------------------------------------------------:---------------
G---------------------------------------------------------------:..Play Intro---
D--2--7---------------------------------------------------------:Riff 4 Times..-
A--2--7---6-6-6-6-6-6-6-6-6-6-6-6-6-6-6-6-6-6-6-6-6-6-6-6-6-6-6-:---------------
E--0--5---4-4-4-4-4-4-4-4-4-4-4-4-4-4-4-4-4-4-4-4-4-4-4-4-4-4-4-:---------------

Verse Riff...

   PM.......................................

e-----------------------------------------------
B-----------------------------------------------
G----------------------------------------------- 
D---------------------------------------------6- 
A--6-6-6-6-6-6-6-6-6-6-6-6-6-6-6-6-6-6-6-6-6--4-
E--4-4-4-4-4-4-4-4-4-4-4-4-4-4-4-4-4-4-4-4-4----

Verse Riff (Continued)

   PM.......................................

e-----------------------------------------------------------:-------------------
B----------------------------------------------------4-5----:-.Play Verse Riff.-
G--------------------------------------------------------6--:-.Four TImes......-
D--------------------------------------------------6--------:-------------------
A--6-6-6-6-6-6-6-6-6-6-6-6-6-6-6-6-6-6-6-6-6---4-7----------:-------------------
E--4-4-4-4-4-4-4-4-4-4-4-4-4-4-4-4-4-4-4-4-4----------------:-------------------

Chorus Riff...

e----------------------------------------------:--------------------------------
B----------------------------------------------:--------------------------------
G--9---11------9---11------9---11------9---11--:--..Play Intro Riff 2 Times..---
D--9---11------9---11------9---11------9---11--:--------------------------------
A--7----9------7----9------7----9------7----9--:--------------------------------
E----------------------------------------------:--------------------------------

Sub Ending Riff 1

   PM...        PM...        PM...

e---------------------p-h----------------[----------:---------------------------
B--------p-h----------6-4-6--------p-h---[----------:---------------------------
G--------5-4-5---------------------5-4-5-[---10-----:----..Play Three Times..---
D----------------------------------------[----8-----:---------------------------
A--3-3-3--------3-3-3--------3-3-3-------[----------:---------------------------
E----------------------------------------[----------:---------------------------

   PM...        PM...        PM...

e---------------------p-h----------------[----------:--------------------------- 
B--------p-h----------6-4-6--------p-h---[----------:--Slide Down And If You----
G--------5-4-5---------------------5-4-5-[----------:--Have A Wammy Bar, Bend---
D----------------------------------------[----8~~~3-:--It Till It Touches The---
A--3-3-3--------3-3-3--------3-3-3-------[----6~~~1-:--Guitar Body And Quickly--
E----------------------------------------[----------:--Play Sub Ending Riff 2---

Sub Ending Riff 2

e--------------------------------------------:----------------------------------
B--------------------------------------------:--Then He Plays A Fat Ass Solo----
G------8---------------------8------7~~~~~16-:--That I Have No Clue How To Play-
D------6---7----6~~4---------6---7-----------:----------------------------------
A--6-------5----4~~2-4~~6--------5-----------:----------------------------------
E--4-----------------2~~4--------------------:----------------------------------

After The Solo Play The Intro Riff 2 Times. Then The Verse Riff 4 Times. Then The Chorus Riff. Then Sub Ending Riff 1. Then A Crazy Solo. And Then For The Last Jam......

The Last Jam...

e-----------:-------------------------------------------------------------------
B-----------:-------------------------------------------------------------------
G-----------:--..And Then Your Fuckin' Done!..----------------------------------
D--2--7--6<-:-------------------------------------------------------------------
A--2--7--6<-:-------------------------------------------------------------------
E--0--5--4<-:-------------------------------------------------------------------

  development and support by
dmitry ivanov