rock
 
|tablatures   |lyrics   |discussion forums   |more tabs @ XGuitar.com

Ozzy Osbourne tabs

No Easy Way Out guitar tab

artist:Ozzy Osbourne
song:No easy way out
album:Down to Earth
tabbed by:Derek Dobol


intro-verse-clean
-----------------------------------------------------------
-----------------------------------------------------------
---0---0--0------------------------------------------------
--0-0-0-0-0------------------------------------------------
-3---2----1--x3--------------------------------------------
-----------------------------------------------------------

main riff/w/dist.
------------------------------------------------------------
------------------------------------------------------------
------------------------------------------------------------
-3-5-5-----5-5-5-5-8-8-8-x-x-3-5----------------------------
-3-5-5-----5-5-5-5-8-8-8-x-x-3-5----------------------------
-1-3-3-----3-3-3-3-6-6-6-x-x-1-3----------------------------


chorus-w/dist.
-------------------------------------------------------------
-3-----5-----6----5-------3----5----6----8-------------------
-2-x-x-4-x-x-5-x-x4-------2-x-x4-x-x5-x-x7----0---0--0-------
-0-x-x-0-x-x-0-x-x0-------0-x-x0-x-x0-x-x0---0-0-0-0-0-------
-0-x-x-0-x-x-0-x-x0-x-x-x-0-x-x0-x-x0-x-x0--3---2----1-------
--------------------x-x-x------------------------------------

interlude-clean

-------------------------------------------------------------
---0---0---0---0---0---0---0---------------------------------
--0-0-0-0-0-0-0-0-0-0-0-0-0-0--------------------------------
-2---2---1---1---2---0---1----etc----------------------------
-------------------------------------------------------------
-------------------------------------------------------------



As for the solo...im working on it, I'll
post it asap...if you find any mistakes just
tell me abd I'll fix it, later.
  development and support by
dmitry ivanov