rock
 
|tablatures   |lyrics   |discussion forums   |more tabs @ XGuitar.com

Ozzy Osbourne tabs

No Easy Way Out bass tab

Artist:Ozzy Osbourne
Song:No easy way out
Album:Down to Earth
Tuning:EADG

intro 00:09   bend the 15
|------------------|-----------------------------------------------------------
|------------------|-----------------------------------------------------------
|------------------|------------2-2--------------------------------------------
|----2-4-4~/15-----|--4-4-4-4------2-2h4-4------------------------------------- repeat throughout the song

   "you've got to tell me it's over now"
|------------------------------------------------------------------------------
|--------------------13----------------------------11--------------------------
|---------------11h13--11h13P11-----9h11-----9h11P9--9-9-9---------------------
|--------11-11------------------9-9--------------------------------------------

  "No easy way out"
|------------------------------------------------------------------------------
|------------------------------------------------------------------------------
|------------------------------------------------------------------------------
|-----9-8-7-9-8-7-9-8-7-2-4-4~/15^---------------------------------------------

|------------------------------------------------------------------------------
|------------------------------------------------------------------------------
|--------------2-2-------------------------------------------------------------
|-----4-4-4-4------2-2h4-4-----------------------------------------------------

|------------------------------------------------------------------------------
|------------------13-----------------11---------------------------------------
|-------------11h13--11h13P11-----9h11--9h11P9--9-9-9--------------------------
|--------11-11----------------9-9----------------------------------------------

before the solo do this
|------------------------------------------------------------------------------
|------------------------------------------------------------------------------
|------------------------------------------------------------------------------
|----2~~1~~0~~1~~2~~1~~0~~-----------------------------------------------------

during the solo
|------------------------------------------------------------------------------
|------------------------------------------------------------------------------
|-------------2-2--------------------------------------------------------------
|-----4-4-4-4-----2-2h4-4------------------------------------------------------

|------------------------------------------------------------------------------
|------------------13-----------------11---------------------------------------
|-------------11h13--11h13P11-----9h11--9h11P9--9-9-9--------------------------
|--------11-11----------------9-9----------------------------------------------
 outro
|------------------------------------------------------------------------------
|------------------------------------------------------------------------------
|------------------------------------------------------------------------------
|-----9-8-7-9-8-7-9-8-7-2-4-4~-------------------------------------------------
  development and support by
dmitry ivanov