rock
 
|tablatures   |lyrics   |discussion forums   |more tabs @ XGuitar.com

Ozzy Osbourne tabs

No Bone Movies guitar tab

NO BONE MOVIES
As recorded by Ozzy Osbourne / Randy Rhoads
(From the 1987 Album TRIBUTE)

Words and Music by Osbourne, Daisley, Rhoads, Kerslake
Transcribed by GuitarGod78@cs.com

Gtr I (E A D G B E) - 'Randy'

             Intro
  Rock Shuffle Q=126
 4/4
  Gtr I
        ~
|----------||-------------------|--------------------|-------------------|
|----------||-------------------|-3-x-x-3-(3)--------|-------------------|
|----------||---2---------------|-2-x-x-0-(0)--------|---2---------------|
|----------||-2---5p4p2-4p2-----|-0-x-x-0-(0)--------|---2-5p4p2-4-2-----|
|----------||-0-------------3p0-|------------------0-|-0-------------3p0-|
|-------3--||-------------------|-------3-(3)--3b5---|-------------------|


    PM
|---------------------|
|-3-----3-(3)---------|
|-2-----0-(0)---------|
|-0-----0-(0)---------|
|-------------------0-|
|---0-2-3-(3)-0-3b5---|


|-------------------------------------------|-------------------|
|-------------------------------------------|-3-3-3-3-(3)-------|
|---2-------4b6r(4)b6r(4)b6r(4)b6r(4)b6r(4)-|-2-0-2-0-(0)-------|
|-2---5p4p2---------------------------------|-0-0-0-0-(0)-------|
|-0-----------------------------------------|-------------------|
|-------------------------------------------|-------3-(3)--15\--|


      ~
|-0-------------0--|-(0)-------------|------3-(3)-3-2--|-(2)----(2)--------||
|-0-----2-(2)---0--|-(0)-------------|-3--3-3-(3)-3-3--|-(3)----(3)--------||
|-1-----2-(2)---1--|-(1)-------------|-2--2-0-(0)-0-2--|-(2)----(2)--------||
|-2-----2-(2)---2--|-(2)-------------|-0--0-0-(0)-0-0--|-(0)----(0)--------||
|-2-----0-(0)---2--|-(2)-15s14\------|-----------------|------------0-3h4--||
|-0-0-3-------3-0--|-(0)-------------|------3-(3)-3----|-------------------||


 1st Verse
  PM  PM|   PM                           PM  PM               ~~~~~~
|-----------------|----------------|-----------5------|------------------------|
|-----------------|---7-8--7-8-----|-----------5------|-----3------------------|
|---2-----2-------|---7-7--7-7-2-2-|-(2)---2---2------|---0--------------------|
|---2-----2-------|---7-7--7-7-2-2-|-(2)---2---2--2-4-|-5-----4-(4)-2----------|
|-0---0-0-0-0-7-8-|-9----------0-0-|-(0)-0---0--------|---------------3b3.5p0--|
|-----------------|----------------|------------------|------------------------|


    PM  PM                                 PM  PM                    PM
|-----------------|----^7---^5-7-----|-----------------|----------------------||
|---------------6s|=5--^5---^5-------|-----------------|----------------------||
|-2---2---2-2-6-6s|=5--^5---^5-----2-|-(2)---2---2--2--|----------------------||
|-2---4---2-2-5-5s|=4--^4-4-^4-----2-|-(2)---4---2--4--|-------2-(2)----------||
|-0-0-0-0-0-0-----|--------------0-0-|-(0)-0-0-0-0--0--|-------2-(2)-------0--||
|-----------------|------------------|-----------------|-3-2-0-0-(0)-0-3b4----||


 Chorus
|-------------------|---------------------|
|-------------------|-3--3-3-(3)----------|
|---2---------------|-2--2-0-(0)----------|
|---2-5p4p2-4p2-----|-0--0-0-(0)----------|
|-0-------------3p0-|-------------------0-|
|-------------------|------3-(3)--3b3.5---|


|------------------------------------------|
|------------------------------------------|
|---2-------4b6-[4]b6==([4])r([4])b6-([4])-|
|-----5p4p2--------------------------------|
|-0----------------------------------------|
|------------------------------------------|


|--------------------|-------------------|---------------|
|-3-x-3-3-(3)--------|-------------------|-3--3-3-(3)----|
|-2-x-2-0-(0)--------|-2-2-------------2-|-2--2-0-(0)----|
|-0-x-0-0-(0)--------|-2-2-5p4p2-4p2-4---|-0--0-0-(0)----|
|--------------------|-0-0---------------|---------------|
|-------3-(3)-x-3b5--|-------------------|------3-(3)----|


|-0-------------0--|-(0)----------------|------3-(3)-3-2--|-(2)-------------||
|-0-----2-(2)---0--|-(0)-x\-------------|-3--3-3-(3)-3-3--|-(3)-------------||
|-1-----2-(2)---1--|-(1)----x\--x\--x\--|-2--2-0-(0)-0-2--|-(2)----5h6-5h6--||
|-2-----2-(2)---2--|-(2)----------------|-0--0-0-(0)-0-0--|-(0)-------------||
|-2-0---0-(0)---2--|-(2)----------------|-----------------|-----------------||
|-0---3-------3-0--|-(0)----------------|------3-(3)-3----|-----------------||


 Chorus
              PMPM--|     PM              PM|
|-----------------|-----------------|-----------------|------------------------|
|-----7---5-------|---7-8---7-8-----|-----------------|-----3------------------|
|-----7---5h6-----|---7-7---7-7-2-2-|-2-------2-------|---0--------------------|
|-----7-7---------|---7-7---7-7-0-2-|-2-------2-0-2-4-|-5-----4-(4)-2----------|
|-0-0---------7-8-|-9-----9-----0-0-|-0-x-0-0---------|---------------3b3.5p0--|
|-----------------|-----------------|-----------------|------------------------|


  PM  PM|
|---5-----5-----|-----^7---5-7-----|-----------------|----------------------||
|---5-----5---6s|=5---^5---5-------|-----------------|----------------------||
|-------------6s|=5---^5---5---2-2-|-(2)---2--2--2-2-|----------------------||
|-------------5s|=4-4-^4-x-4---2-2-|-(2)---4--2--4-2-|-------2-(2)----------||
|-0---0-0-------|--------------0-0-|-(0)-x-0--0--0-0-|-------2-(2)-------0--||
|---------------|------------------|-----------------|-3-2-0-0-(0)-0-3b5----||


 Chorus
|-----------------------|-------------------|---------------------|
|-----------------------|-3--3-3-(3)--------|---------------------|
|-2-2-------------------|-2--2-0-(0)------2-|-(2)-2---------------|
|-2---5p4p2-4p2---------|-0--0-0-(0)------2-|-(2)-2-5p4p2-4p2-----|
|-0-------------3b3.5p0-|-----------------0-|-(0)-------------3p0-|
|-----------------------|------3-(3)--3b5---|---------------------|


|--------------------|--------------------------------|----------------|
|-3-x-3-3-(3)--------|--------------------------------|-3-3-3-3-(3)----|
|-2-x-2-0-(0)--------|---2-------4b6-4b6==(4)r(4)p2---|-2-0-2-0-(0)----|
|-0-x-0-0-(0)--------|-2---5p4p2--------------------4-|-0-0-0-0-(0)----|
|------------------0-|-0------------------------------|----------------|
|-------3-(3)--3b5---|--------------------------------|-------3-(3)----|


|-0-----------------0--|-(0)-----------|------3-(3)-3-2--|-(2)-------------||
|-0---------2-(2)---0--|-(0)-----------|-3--3-3-(3)-3-3--|-(3)-------------||
|-1---------2-(2)---1--|-(1)-----------|-2--2-0-(0)-0-2--|-(2)-------17s20-||
|-2---------2-(2)---2--|-(2)-----------|-0--0-0-(0)-0-0--|-(0)-------------||
|-2---------0-(0)---2--|-(2)-----------|-----------------|-----------------||
|-0-0-3b3.5-------3-0--|-(0)------15\--|------3-(3)-3----|-----------------||


 Guitar solo
            ~~
|-16------------17----17-20p17----17----|
|----19s20-20------20----------20----20p|
|---------------------------------------|
|---------------------------------------|
|---------------------------------------|
|---------------------------------------|


|----------------------17-------------------------|
|-17----17----------------------------------------|
|----20----20p17-19s20----19p17-19p17-------------|
|-------------------------------------19p17-------|
|-------------------------------------------19p17-|
|-------------------------------------------------|


         ~~
|-----------19b21-(19)-19pb20-19pb21-19b21==|
|-------------------------------------------|
|-------------------------------------------|
|-------19----------------------------------|
|-------------------------------------------|
|-20s21-------------------------------------|


                      ~~~~~~~
|-(19)r(19)---------------------17----17-17-|
|-----------22p20h22p20-(20)-20----20-------|
|-------------------------------------------|
|-------------------------------------------|
|-------------------------------------------|
|-------------------------------------------|


|-17h20p17----17-17-17h20p17----17-17-20p17----17-------20b23==(20)-|
|----------20----------------20-------------20----20p17-------------|
|-------------------------------------------------------------------|
|-------------------------------------------------------------------|
|-------------------------------------------------------------------|
|-------------------------------------------------------------------|


|-(20)r(20)-17----17-----------------------------|
|--------------20----20p17----17h20p17----17-----|
|--------------------------19----------19----19--|
|------------------------------------------------|
|------------------------------------------------|
|------------------------------------------------|


|-----------------------------------------19b21==|
|------------------------------------------------|
|-17p----19----17----------------17----17--------|
|-----19----19----19p17----17h19----19-----------|
|-----------------------19-----------------------|
|------------------------------------------------|


                          ~~                                             ~~
|-(19)-(19)r(19)b21-(19)-19--x-------|-------------------------------------|
|----------------------------x-17b20-|-(17)-17-[16]-[15]-[17]-[16]-[17]----|
|----------------------------x-------|----------------------------------14-|
|------------------------------------|-------------------------------------|
|------------------------------------|-------------------------------------|
|------------------------------------|-------------------------------------|


    ~~~~       ~~~
|------------------x-17h20p|
|------------------x-------|
|-(14)--17-14-14\----------|
|--------------------------|
|--------------------------|
|--------------------------|


|-17----17-------------------------------------------------------------|
|----20----20p17h20p17----17-------------------------------------------|
|----------------------19----19p17h19p17----17-------------------------|
|----------------------------------------19----19p17-------------------|
|----------------------------------------------------19-(19)b21==(19)--|
|----------------------------------------------------------------------|


                                  3rd Verse
                                         PM
|-------------------------------||---------8s9-----|
|-------------------------------||-----------------|
|-------------------------17-18-||-----7-----------|
|----------------------19-------||---7-------------|
|-(19)r(19)b21-(19)--0----------||-0-----0-----7-8h|
|-------------------------------||-----------------|


        PM
|-----------------|-----5-----5-------|
|-----7---7-8-7---|-----5-----5-------|
|-----7---7-7-7-2-|-(2)---------------|
|---7-----7-7-7-2-|-(2)----------2-4--|
|-9-----9-------0-|-(0)---0-0---------|
|-----------------|-------------------|


|-------------------|-----5-----5-5-----|-----^7--5-7-------|----------------|
|-----3-------------|-----5-----5-5-5s6s|=5---^5--5---------|----------------|
|---0-------------2-|-(2)-----------5s6s|=5---^5--5---------|----2---2--2-2--|
|-5-----4-(4)-2-4-2-|-(2)-----------4s5s|=4-4-^4--4---------|----4---2--4-2--|
|-----------------0-|-(0)---0-0---------|-------------(0)-0-|-0--0-0-0--0-0--|
|-------------------|-------------------|-------------------|----------------|


                   Chorus
  ~
|----------------||-------------------|-------------------|--------------------|
|----------------||-------------------|-3--3-3-(3)--------|--------------------|
|----------------||---2---------------|-2--2-0-(0)--------|---2----------------|
|----------------||-2-2-5p4p2-4p2-----|-0--0-0-(0)--------|-2---5p4p2-4p2------|
|----------------||-0-0-----------3p0-|-----------------0-|-0-------------3p0--|
|-3---0-(0)--3h4-||-------------------|------3-(3)--3b5---|--------------------|


|------------------|--------------------------------|------------------|
|-3--3-3-(3)-------|--------------------------------|-3--3-3-(3)-------|
|-2--2-0-(0)-------|-2-2-------4b6-4b6==(4)r(4)-2---|-2--2-0-(0)-------|
|-0--0-0-(0)-------|-2---5p4p2--------------------4-|-0--0-0-(0)-------|
|------------------|-0------------------------------|------------------|
|------3-(3)--3b5--|--------------------------------|------3-(3)--17\--|


|-0----------------|--------------|------3-(3)-3-2--|-(2)---------------|
|-0----------------|--------------|-3--3-3-(3)-3-3--|-(3)---------------|
|-1-----2-(2)------|--------------|-2--2-0-(0)-0-2--|-(2)--5h6----------|
|-2-2---2-(2)---2--|-(2)----7\----|-0--0-0-(0)-0-0--|-(0)------7-5------|
|-2-2---0-(0)---2--|-(2)----------|-----------------|--------------5s4--|
|-0-0-3-------3-0--|-(0)----------|------3-(3)-3----|-------------------|


     PM|
|---------------|----------------------|-----------------|-------------------|
|-------------3-|-(3)-x-3-3-(3)--------|---------------3-|-(3)--3-3-(3)------|
|--------2--x-2-|-(2)-x-2-0-(0)--------|-2-2-2---2-2---2-|-(2)--2-0-(0)--0---|
|-7------2--x-0-|-(0)-x-0-0-(0)--------|-2-2-2---2---4-0-|-(0)--0-0-(0)--0---|
|-0--0-0--------|--------------------0-|-0-0-0-0-0-------|-------------------|
|---------------|---------3-(3)--3b5---|-----------------|--------3-(3)------|


|---5-5---5-------|--------3-(3)-------|
|---5-5---5-----3-|-(3)--3-3-(3)-------|
|-2-------------2-|-(2)--2-0-(0)-------|
|-2-----2-------0-|-(0)--0-0-(0)-------|
|-0-----0---0-4---|--------------------|
|-----------------|--------3-(3)--3b5--|


|---5-----5-------|------------------------|
|---5-----5-----3-|-(3)--3-3-(3)-----------|
|-2---2-2-------2-|-(2)--2-0-(0)-----------|
|-2---4-2---2-2-0-|-(0)--0-0-(0)-----------|
|-0---0-0---0-4---|---------------------0--|
|-----------------|--------3-(3)--3b3.5----|


  PM   PM
|---5-------5-------|---------3-(3)-----|
|---5-------5-----3-|-(3)-3-3-3-(3)-----|
|-----------------2-|-(2)-2-2-0-(0)-----|
|-----------------0-|-(0)-0-0-0-(0)---x-|
|-0---(0)-0---0-4---|-----------------x-|
|-------------------|---------3-(3)-----|


|---5-----5-------|---------------3-3-5--||
|---5-----5-----3-|-(3)-3-3-3-(3)-3-3-5--||
|-----2---------2-|-(2)-2-2-0-(0)-0-0----||
|-2---2---------0-|-(0)-0-0-0-(0)-0-0----||
|-0---0h4---0h4---|----------------------||
|-----------------|---------3-(3)-3-3----||


 Outro
|-5---5-5-5-5-5-5-5-----|-----------------5-|-5---5-5-5-5-5-5-----|
|-5h7-7-7-7-5-5-7-5-----|-----7-8-(8)-8-7-5-|-5h7-7-7-5-5-7-5-----|
|-----------------------|-----7-7-(7)-7-7---|---------------------|
|-----------------------|---7-7-9-(9)-9-7---|---------------------|
|-------------------7-8-|-9-----------------|-----------------7-8-|
|-----------------------|-------------------|---------------------|


                  PM
|-------------------|-----------------|-------------3-3-3-|------------------|
|---7-7-8-(8)-8-7---|-----------------|-3-3-3-3-(3)-3-3-3-|-5-------7-7------|
|---7-7-7-(7)-7-7---|-5h6-------------|-2-2-2-0-(0)-0-0-0-|-5h6-----7-7------|
|---7-7-9-(9)-9-7---|-----7p5-7-------|-0-0-0-0-(0)-0-0-0-|-6---7-5-7---7-7--|
|-9---------------0-|-----------5s4p0-|-------------------|------------------|
|-------------------|-----------------|-------3-(3)-3-3-3-|------------------|


|-------------------|-----------------|
|-7-7-7-8-(8)-8-7---|-----------------|
|-7-7-7-7-(7)-7-7---|---------2-------|
|-7-7-7-9-(9)-9-7---|-2-2-------5-4p2-|
|-----------------x-|-0-0-3h4---------|
|-------------------|-----------------|


|-----------------------|------------------|
|-3-3-3-3-(3)-3-3-------|------------------|
|-2-0-2-0-(0)-0-0-------|------------------|
|-0-0-0-0-(0)-0-0-------|-2---5p4-2-----2--|
|-----------------3b3.5-|-0-0-------3h4----|
|-------3-(3)-3-3-------|------------------|


                      PM----------------------------|
|---2---3-(3)-3-3-3-|---------------------------------|------3-(3)-3-3--|
|---3---3-(3)-3-3-3-|---------------------------------|-3--3-3-(3)-3-3--|
|---2---0-(0)-0-0-0-|---------------------------------|-2--2-0-(0)-0-0--|
|-0---0-0-(0)-0-0-0-|-2-------------------------------|-0--0-0-(0)-0-0--|
|-------------------|-0-0-0-0-4p0-0-0-0-0-0-0-4p0-0-0-|-----------------|
|-------3-(3)-3-3-3-|---------------------------------|------3-(3)-3-3--|


  PM----------------------------|
|---------------------------------|------------------|
|---------------------------------|-3-------3-(3)----|
|---------------------------------|-2b2.5---0-(0)----|
|---------------------------------|-0-------0-(0)----|
|-0-0-0-0-4p0-0-0-0-0-0-0-4p0-0-0-|------------------|
|---------------------------------|---------3-(3)----|


|-------------------------|-----------------------|
|-------------------------|-----------------------|
|----------2-(2)----------|-----------------------|
|-2--------2-(2)-------2--|-(2)-------------------|
|-2--------0-(0)-------2--|-(2)-2s==14b15--(14)\--|
|-0--3b3.5-------3b3.5-0--|-(0)-------------------|


|-----------------|------------------|
|-3--3-3-(3)-3-3--|-(3)----(3)-------|
|-2--2-0-(0)-0-2--|-(2)----(2)-------|
|-0--0-0-(0)-0-0--|-(0)----(0)-------|
|-----------------|------------0-3h4-|
|------3-(3)-3----|------------------|


                    ~~
|---------17----------17----17-20p17----17--------|
|-----/20----20p17-20----20----------20----20p17--|
|-2-----------------------------------------------|
|-2-----------------------------------------------|
|-0-----------------------------------------------|
|-------------------------------------------------|


|-------------------17------------------------------------------|
|----17----------17---------------------------------------------|
|-20----20p17-19-------19p17------------------------------------|
|----------------------------19-(17)-19-19p17----17----17-19p17-|
|---------------------------------------------19----19----------|
|---------------------------------------------------------------|


|-------------------------------------|----------*|
|-------------------------------------|----------*|
|------18s17s18s17s18-([18])--([18])--|----------*|
|-(17)--------------------------------|----------*|
|-------------------------------------|-19\------*|
|-------------------------------------|-17\------*|


Tablature Legend
----------------
 h   - hammer-on
 p   - pull-off
 b   - bend
 pb  - pre-bend
 r   - bend release (if no number after the r, then release immediately)
 /\  - slide into or out of (from/to "nowhere")
 s   - legato slide
 S   - shift slide
  - natural harmonic
[n]  - artificial harmonic
n(n) - tapped harmonic
 ~   - vibrato
 tr  - trill
 T   - tap
 TP  - trem. picking
 PM  - palm muting
\n/  - tremolo bar dip; n = amount to dip
 \n  - tremolo bar down
 n/  - tremolo bar up
/n\  - tremolo bar inverted dip
 =   - hold bend; also acts as connecting device for hammers/pulls
 <>  - volume swell (louder/softer)
 x   - on rhythm slash represents muted slash
 o   - on rhythm slash represents single note slash

Misc Legend
-----------
 |  - bar
||  - double bar
||o - repeat start
o|| - repeat end
*|  - double bar (ending)
 :  - bar (freetime)
 $  - Segno
 &  - Coda
  development and support by
dmitry ivanov