rock
 
|tablatures   |lyrics   |discussion forums   |more tabs @ XGuitar.com

Ozzy Osbourne tabs

Mr. Tinkertrain guitar tab

Tune down 1/2 step: Eb Ab Db Gb Bb Eb

Intro: arranged for guitar:
|-14-15-13-15-12--14-15-|-12---14-15-17-15-14-15-|
|-----------------------|------------------------|
|-----------------------|------------------------|
|-14--------------------|-12---------------------|
|-----------------------|------------------------|
|-----------------------|------------------------|

|-14-15-13-15-12--------|-----------18-18-17--|
|-----------------15-17-|-15-15---------------|
|-----------------------|-------17------------|
|-11--------------------|---------------------|
|-----------------------|-15------------------|
|-----------------------|---------------------|

|---------------------------------------
|-4----4----4---------------------------
|-4----4----4---------------------------
|-4----4----4---PM----------------------
|-2----2----2----*--*--*--*--*--*-*-----
|----------------5--5--4--3--2--1-0-----

W/ above figure: 3 times
|GTR 2 w/ slide--------------------------------------------------------
|--------------------------------16--------------16-------------14/16--
|-----8------/---(11)--/--16---------16----------------16~~~~~--14/16--
|----------------------------------------------------------------------
|----------------------------------------------------------------------
|----------------------------------------------------------------------
|GTR 3
|-----9 /11-p-0----------------------------------------------------------
|--------------------19-------19--------19--------19-19----19--------17^-
|-----------------18^------18^-------18^-------18^------18^^^18-16~~-----
|------------------------------------------------------------------------
|------------------------------------------------------------------------
|------------------------------------------------------------------------

GTR 2
|------------------------------------------------------------------
|-------------------------16---\\\\--14--\\\\-\\------------------------
|-------------------------16---\\\\--14--\\\\-\\-\\\\--\\------------------
|-------------------------------------------\\\\--\\-\\\\-\\-------------
|-------------------------------------------------\\\\-\\-------------
|------------------------------------------------------------------
|GTR 3
|-------17------------17--19^~~~~~~~~~~~--21^~~~~~~~~~~~~-(21)\\----
|-----------17^----------------------------------------------------
|------------------------------------------------------------------
|------------------------------------------------------------------
|------------------------------------------------------------------
|------------------------------------------------------------------

Main figure:
|--------------------------|----------------------|
|---------------3----------|----------------------|
|---------------2----2--2--|-------2-----2--------|
|---------------0----0--2--|-------2-----2--------|
|-2-----2-------0----0--0--|-------0-----0--PH----|
|-0--3--0---3-0------------|----3-----3-----3^~~~-|

|--------------------------|----------------------|
|---------------3----------|--------------14^-----|
|---------------2----2--2--|-(2)----------14^-----|
|---------------0----0--2--|-(2)------------------|
|-2-----2-------0----0--0--|-(0)-------x----------|
|-0--3--0---3-0------------|------(3)-------------|


"Would you like some sweeties little girl?"
|------------------------------------------------------------------
|---------------------------------3--0--0------------3-------------
|---------------------------------2------------------2---2---(2)---
|-----2---------------------------0--2--2------------0---2---(2)---
|-----2---------------------------0--2--2------------0---0---(0)---
|-3p0-0------------------------------0--0--------------------------
                      "I'm gonna show you a brand new world..."
----------------------------rake:---------------------------------
-----3---------------------(3--------------------------------------
-----2---------------------)2--------------------------------2-----
-----0---2---2-------------(0--------------------------------2-----
-----0---2---2-------------)0--------------------------------0-----
---------0---0-----------------------------------------------------

|------------------------------------------------
|-7^--^(7)--T------------,,,------PH==========|--
|-7^--^(7)--21^--(21)p-2^---^(2)--2~~~~-(2)p(0)--
|------------------------------------------------
|------------------------------------------------
|------------------------------------------------

"Iv'e got a palace full of fantasy..."
|-----------------|-----------------|------------------|------------
|-----------------|-----------------|------------------|------------
|-----------------|-----------2-2---|-----------2-2--2-|--2---------
|-2---------------|-----------0-0-2-|-2---------0-0--0-|--0-2-2-2-2-
|-2-2-2-2-2-2-2-2-|-2-2-2-2-2-0-0-2-|-2-2-2-2-2-0-0--0-|--0-0-0-0-0-
|-0-0-0-0-0-0-0-0-|-0-0-0-0-0-------|-0-0-0-0-0--------|------------
         "Once you're there I'm gonna take you for a ride..."
--------|--------0----------|------------------|-------------------
-3-3----|-------------------|-------5----------|--------2----------
-2-2--4-|-----0----------0--|-----0---------0--|------2------------
-0-0--4-|---4----------4----|---4---------4----|----2---------0-2--
-0-0--2-|-7----------7------|-5---------7------|--4---------4------
--------|-------------------|------------------|-------------------

"Ive got a one way ticket..."
|------------------------|------------------------|----------------
|------------------------|------------------------|----------------
|-4----------------------|--4---------------------|----------------
|-4-------7-7-6-5-4-3-2--|--4-------7-7-6-5-4-3-2-|----------------
|-2----------------------|--2---------------------|----------------
|---------5-5-4-3-2-1-0--|----------5-5-4-3-2-1-0-|----------------

|------------------------|-----------------------------------------
|------------------------|-----------------------------------------
|-6----------------------|-6-------4----4----4--4--0---------------
|-6-------9-9-8-7-6-5-4--|-6-------4----4----4--4--0---back to main riff...
|-4----------------------|-4-------2----2----2--2------------------
|---------7-7-6-5-4-3-2--|-----------------------------------------

Pre-solo:
|------------------------------------------------------------------
|-16----------16/17--16---14----------------------14^--^14^---^14--
|--8-----------8/9----8----6----16----------16-----6^--^6-^---^6---
|--------------------------------9-----------9---------------------
|------------------------------------------------------------------
|------------------------------------------------------------------

|------------------------------------------------------------------
|-----------------/19-----17-----16--------------------------------
|-16--------------/11------9------8-\\-6------16-------16-----------
|--9------------------------------------------9--------9-----------
|------------------------------------------------------------------
|------------------------------------------------------------------

|---------------------------------------------------
|-14^--^14^--^14^--^14^--^14^--^14^--^14------------
|--6^--^6-^--^-6^--^6-^--^-6^--^6-^--^6-------------
|---------------------------------------------------
|---------------------------------------------------
|---------------------------------------------------

SOLO:
|----------------------------------------|----------------------
|-----15-----15-----15-----15-----15-----|-15----15-------------
|-14^----14^----14^----14^----14^----14^-|----14^--^14^-^14p12--
|----------------------------------------|----------------------
|----------------------------------------|----------------------
|----------------------------------------|----------------------

|----^~~~~~~-------0-|-15-12-15-12-----15-12-15-12-----15-12-15-12-
|-15^--------(15)-\\--|------------15-12-----------15-12------------
|--------------------|---------------------------------------------
|--------------------|---------------------------------------------
|--------------------|---------------------------------------------
|--------------------|---------------------------------------------

-------15-12-15-12------|-15^----15^----12-------------------------
-15-12------------------|-----------------15^~~~~--(15)\\-----------
------------------15-12-|------------------------------------------
------------------------|------------------------------------------
------------------------|------------------------------------------
------------------------|------------------------------------------

|-------------------------------------|----------------------------
|-------------------------------------|---------------12~~~~~------
|-12^-^12p9----9~~~-12^-^12p9----9~~~-|-14^-^14p12----12~~~~~------
|-----------12----------------12------|------------14--------------
|-------------------------------------|----------------------------
|-------------------------------------|----------------------------

|----19----19-----19-----19------------|-19^---^19-----------------
|-19^--19^----19^----19^----19^-^19-\\--|-----------19^---^19--17\\--
|--------------------------------------|---------------------------
|--------------------------------------|---------------------------
|--------------------------------------|---------------------------
|--------------------------------------|---------------------------

|---------7----------------------------|-7----------7---------------------
|-10^~~~~---10p7-10^-----7-10p7-10^~~~-|---10-7---7-----------------------
|--------------------------------------|--------9^----9^-^9-7---9---7-----
|--------------------------------------|----------------------9---9---9p7-
|--------------------------------------|----------------------------------
|--------------------------------------|----------------------------------

|----------7------------|-------10--7--10--7-----------------------
|-10^~~~~----10p7-10^---|---------------------10^~~~~---7---7------
|-----------------------|------------------------------------------
|-----------------------|------------------------------------------
|-----------------------|------------------------------------------
|-----------------------|------------------------------------------

|-12^-----12-(12)^-------------9-------------9----------------------
|--------------------12^~~~~-----12-9-----9-------------------------
|-------------------------------------11^------11^-^11-9----11----9-
|--------------------------------------------------------11----11-9-
|-------------------------------------------------------------------
|-------------------------------------------------------------------

|------------------------------------------------------------------
|-------12--12-----12-12-----12--12-----12----12-------------------
|-11^-------11^-------11^--------11^-------11^--^11---9\\-----------
|------------------------------------------------------------------
|------------------------------------------------------------------
|------------------------------------------------------------------

|-17^~~~~~~~~~~~~~~17~~~~~---15---17--17^---15---------------------
|---------------17^----------15-----------------17~~~~~~~~~~~~~~~--
|---------------------------x--------------------------------------
|--------------------------x---------------------------------------
|------------------------------------------------------------------
|------------------------------------------------------------------

|------------------------------------------------/12~~~~~(12)\\-----
|-15-----------12---(12)-----(12)~~~~~--12\\-0----/12-----(12)\\-----
|----14^--^14--12---(12)-----(12)-------12\\-0----/12-----(12)\\-----
|------------------------------------------------------------------
|------------------------------------------------------------------
|------------------------------------------------------------------end solo


"You can't run...you can't hide!..."
|------------------------------------------------------------------
|------------------------------------------------------------------
|-9\\-----------7--7--------2--2-------2-------2-------2-----2--2---
|-9\\-----------7--7--------2--2-------2-------2-------2-----2--2---
|-7\\-----------5--5--------0--0-------0-------0-------0-----0--0---
|----------------------------------3^------3^------3^----3^--------
                        "That's why the call me...Mr. Tinkertrain..."
|----------------------|-----------------------|-------------------|
|----------------------|--------------3--------|--10-10-10-9-8-7---|
|-----------2-----18\\--|--------------2-----2--|---9--9--9-8-7-6---|
|-----------2----------|--------------0-----2--|---7--7--7-6-5-4---|
|-----------0----------|--2-----2-----0-----0--|-------------------|
|-3^---0---------------|--0--3--0--3-----------|-------------------|
  development and support by
dmitry ivanov