rock
 
|tablatures   |lyrics   |discussion forums   |more tabs @ XGuitar.com

Ozzy Osbourne tabs

Killer Of Giants bass tab

=== Crankster's Ozzy Page
=== http://crankster.cjb.net
=== crankster@mailexcite.com

Transcriber - Ryan Silke 

Killer of Giants
Ozzy Osbourne- The Ultimate Sin

 All songs on "The Ultimate Sin" are not perfectly tuned to Eb 
 being somewhere between Eb and E, so adjust until it sounds good.

 Verse
         "Giants Sleeping......Giants winning......
 Gb-------------------------------------------
 Db--------------------------------------------
 Ab--------------------------0-2---------------
 Eb--0-1-3-----------------3-------------------

   "...wars within their dreams.."
 Gb---------------------------------------4\--
 Db-------------------------------------------
 Ab---------------------------0-2-------------
 Eb--0-1-3------------------3-----------------

         "Till they wake, when it's too late..and in God's name blaspheme
 Gb---------------------------------------------------------------------------
 Db---------------------------------------------------------------------------
 Ab---------------------------------------------------------------------------
 Eb--0-1-3--------------------0-3-5----------0-1-3-3-3-3-3-5-5-5-5-7-7-7-7-\--

 Chorus
    "Killer of Giants...."      "Threatens us all....mountains of
 madness....standing so tall.."
 Gb----------------------------------------------------------------------------------------------
 Db----------------------------------------------------------------------------------------------
 Ab----R------------2--2-2----2-2--2-4-5-2-0---0--0--0-2-5--4--2--2-2---2--2-2-2-5-4-2-0---0--0--
 Eb-------------------------2-----------------------------------------2--------------------------
  
   "Rising so proudly..  It has nowhere to fall....
 Gb---------------------------------------------------------
 Db---------------------------------------------------------
 Ab--0-2-5--------------------0-2--4--4--4--4--0--0--0-2-5--
 Eb---------5--3--3--3--3--3-------------------------------

                 "This Killer of Giants.....
 Gb------------------------------------------
 Db------------------------------------------
 Ab--2--2-2--2-2--2-4-5--2--2-2-2-2---2--\---
 Eb------------------------------------------

 Verse 2
 Gb--------------------------------------------
 Db--------------------------------------------
 Ab--------------------------0-2--2--2---------
 Eb--0-1-3--3--3-----------3-------------------

 Gb---------------------------------------4\---
 Db--------------------------------------------
 Ab--------------------------0-2--2--2---------
 Eb--0-1-3--3--3-----------3-------------------

 Gb-------------------------------------------------------------------------------
 Db-------------------------------------------------------------------------------
 Ab-------------------------------------------------------------------------------
 Eb--0-1-3--3--3-----------0-3-5--5--5-----------0-1-3-3-3-3-3-5-5-5-5-7-7-7-7-\--

 repeat Chorus

 Solo x 2
 Gb-----------------------------------------------------------
 Db-----------------------------------------------9------9----
 Ab---------------------------------------------7----7--------
 Eb--3--3--3--3-4-5--5--5--5-6-7--7--7--7--7--7--------7---7--

 Gb----------------------------------------------------------
 Db----------------------------------------------------------
 Ab----------------------------------------------------------
 Eb--3--3--3--3-4-5--5--5--5-3-2--2--2--2--2--2--2--2--2--0--

 Gb-----------------------------------------------------------
 Db-----------------------------------------------9------9----
 Ab---------------------------------------------7----7--------
 Eb--3--3--3--3-4-5--5--5--5-6-7--7--7--7--7--7--------7---7--

 Gb-----------------------------------------------------------
 Db-----------------------------------------------9------9----
 Ab---------------------------------------------7----7--------
 Eb--3--3--3--3-4-5--5--5--5-6-7--7--7--7--7--7--------7---7--

 Gb-----------------------------
 Db-----------------------------
 Ab-----------------------------
 Eb--3--3--3--3-4-5--5--5--5-\--

 Interlude       x 3
 Gb-----------------------------------------------------------------
 Db-----------------------------------------------------------------
 Ab-------------------------3---5--1-1-1-1-1-1-1-1-1-3-1-0-1-0------
 Eb--0--0-0-0-0-0-0-0-0-0-0------------------------------------3-1--

 Gb-------------------------------------------------------
 Db-------------------------------------------------------
 Ab-------------------------------------------------------
 Eb--3333333333333333-3-3--3---555555555555555555-5-5--5--

         x 3
 Gb-----------------------------------------------------------------
 Db-----------------------------------------------------------------
 Ab-------------------------3---5--1-1-1-1-1-1-1-1-1-0-1-3-1-0------
 Eb--0--0-0-0-0-0-0-0-0-0-0------------------------------------3-1--

 Gb----------------------------------------------------------------------
 Db----------------------------------------------------------------------
 Ab----------------------------------------------------------------------
 Eb--3333333333333333-3-3--3---555555555555555555-5-5--5-5-5-5-5-5-5--\--

 repeat Chorus

 Outro
                 "The Killer of Giants....."
 Gb---------------------------------------------------------------------------
 Db---------------------------------------------------------------------------
 Ab--2--2-2--2-2--2-2------------0--0--0-2-5--2--2--2--2----------------0-----
 Eb-------------------3--3--3--3--------------------------3---3----2----------



  development and support by
dmitry ivanov