rock
 
|tablatures   |lyrics   |discussion forums   |more tabs @ XGuitar.com

Ozzy Osbourne tabs

Goodbye To Romance bass tab

Key:
/    = slide up
\\    = slide down
b    = bend (whole step)
b^   = bend (1/2 step)
b^^  = bend (1 1/2 steps)
pb   = pre-bend
r    = release-bend
t    = tap with righthand finger
h    = hammer-on
p    = pull-off
~    = Vibrato
*    = Natural Harmonic
#(#) = Trill
x    = Dead notes (no pitch)
P.M. = Palm mute (- -> underneath indicates which notes)
Tp   = Tap w\\plectrum


Intro

G|---------------------|---------------------14----------------------|
D|---------------------|---------------11/12----12-------------------|
A|--5--------4------x--|--2------2--0--------------12----------------|
E|---------------------|------------------------------10\\------------|



Verse 1 ("Yesterday has been and gone...")

G|------------------------|------------------------------------------|
D|------------7-----------|-----------------4------------------------|
A|--5------5-----4--5--4--|--2------2--------------------------------|
E|------------------------|------------2-------2---------------------|



G|------------------------|------------------------------------------|
D|-------5----------5-----|--------7--------------7\\-----------------|
A|------------------------|------x-------------7---------------------|
E|--3--------x-3-------3--|--5--------5--7--9------------------------|



G|------------------------|------------------------------------------|
D|------------7-----------|-----------------4------------------------|
A|--5------5-----4--5--4--|--2------2--------------------------------|
E|------------------------|------------2-------2---------------------|



G|------------------------|-----------------------9------------------|
D|-------5----------5-----|--------7-----------11---11\\--------------|
A|------------------------|------x-----------------------------------|
E|--3--------x-3-------3--|--5--------5--7--9------------------------|




Chorus ("I said goodbye to...")

G|----------------------|------------------/4------------------------|
D|----------------------|--------------------------------------------|
A|--5------5--4------4--|--2------2--0--------0----------------------|
E|----------------------|--------------------------------------------|



G|------------------------|---------------------6--------------------|
D|-------5----------5-----|-------7-----------7----------------------|
A|------------------------|-----------------------7\\-----------------|
E|--3--------3-3-------3--|--5-------5--7--9-------------------------|



G|----------------------|--------------------4-----------------------|
D|----------------------|--------------------------------------------|
A|--5------5--4------4--|--2------4-2-0--------0---------------------|
E|----------------------|--------------------------------------------|



G|-----------------------|-------------------------------------------|
D|-------5---------------|-------7----------9--7\\--------------------|
A|-----------------------|-------------------------------------------|
E|--3--------x-3------3--|--5---------7--9---------------------------|




Interlude

G|----------------------|-----------------14\\------------------------|
D|----------------------|--------------------------------------------|
A|--5------5--4------4--|--2------2--0-------------------------------|
E|----------------------|--------------------------------------------|




Verse 2 ("I´ve been the King, I´ve been the clown...")

G|-----------------------|-------------------------------------------|
D|-----------7-----------|-------------------------------------------|
A|--5-----------4--5--4--|--2------2---------------------------------|
E|-----------------------|------------2------2-----------------------|



G|------------------------|------------------------------------------|
D|-------5----------5-----|-------7--------------7-------------------|
A|------------------------|-------------------7----------------------|
E|--3--------3-3-------3--|--5-------5--7--9-------------------------|



G|------------------------|------------------------------------------|
D|-----------7------------|-----------------x------------------------|
A|--5-----------4--4-5-4--|--2------2--------------------------------|
E|------------------------|------------2-------2---------------------|



G|------------------------|------------------------------------------|
D|-------5----------5-----|-------7--------------7\\------------------|
A|------------------------|-------------------7----------------------|
E|--3--------3-3-------3--|--5-------5--7--9-------------------------|




Chorus ("I said...")

G|----------------------|------------------/4------------------------|
D|----------------------|--------------------------------------------|
A|--5------5--4------4--|--2------2--0--------0----------------------|
E|----------------------|--------------------------------------------|



G|------------------------|-------------------------14---------------|
D|-------5----------5-----|-------7--------------------14\\-----------|
A|------------------------|-------------------14/16------------------|
E|--3--------3-3-------3--|--5-------5--7--9-------------------------|



G|----------------------|--------------------------------------------|
D|----------------------|--------------------------------------------|
A|--5------5--4------4--|--2------2--0----0--------------------------|
E|----------------------|--------------------5/7-5-------------------|



G|------------------------|------------------------------------------|
D|-------5----------5-----|-------7--------------7-------------------|
A|------------------------|------------------------------------------|
E|--3--------3-3-------3--|--5-------5--7--9--5----------------------|



Interlude

G|----------------------|--------------------------------------------|
D|----------------------|--------------------------------------------|
A|--5------5--4------4--|--2------2--0-------------------------------|
E|----------------------|-------------------2------------------------|



Bridge ("And I feel the time is right...")

G|-------------------------|-----------------------------------------|
D|-------------------------|-----------------------------------------|
A|-------7----7-----7------|-----------7---9p7-----------------------|
E|--0------------0-----9-7-|--5----7/9---9-----9-7-5-----------------|



G|----------------------------|------------------7-------------------|
D|------------------------7h9-|--11--7-9----7-------9-7--------------|
A|--5----5------5---5-7/9-----|-----------9-------------9------------|
E|----------5h7---------------|---------------------------7----------|



G|-------------------------|-----------------------9-----------------|
D|-------------------------|---------------7--9/11----11\\------------|
A|-------7----------7------|-----------7-9---------------------------|
E|--0---------0--0-----9-7-|--5----7/9-------------------------------|



G|---------------------------|----------------9/11p7-----------------|
D|-----------------------7h9-|--11--7-9----7---------11p9p7----------|
A|--5----------5---5-7/9-----|-----------9------------------9p7------|
E|---------5h7---------------|---------------------------------------|




Guitar solo

G|-----------------------|-------------------------------------------|
D|-----------------------|-------------------------------------------|
A|--5----5--5--4------4--|--2------2--0----0--2-0--------------------|
E|-----------------------|-------------------------------------------|



G|-----------------------------|-------------------------------------|
D|------5-5---------x-x-5------|-------7-7----7/9--------------------|
A|-----------------------------|------------------9/12-9--7----------|
E|--3--------x-3-3---------3-3-|--5--5----------------------9--------|



G|-----------------------|-------------------------------------------|
D|-----------------------|-------------------------------------------|
A|--5----5--5--4------4--|--2------2--0----0--0h2-0------------------|
E|-----------------------|-------------------------------------------|



G|----------------------------|--9/11-7h9-6h7------------------------|
D|--------5---------x-5-5--x--|---------------9h11-7h9-5h7-5-4-------|
A|----------------------------|--------------------------------7-4---|
E|--3---3----x-x-3------------|--------------------------------------|



Chorus ("I said...")

G|----------------------|--------------------------------------------|
D|----------------------|--------------------------------------------|
A|--5----5----4----4----|--2----2----0----0--------------------------|
E|----------------------|--------------------5/7\\5-------------------|



G|---------------------------|---------------------------------------|
D|---------5---5-------5-----|-------7--7-------9/11-----------------|
A|---------------------------|------------5-7/9--------9p7-----------|
E|--3--3-3-------3--3-----3--|--5------------------------------------|



G|----------------------|--------------------------------------------|
D|----------------------|--------------------------------------------|
A|--5------5--4----4----|--2--------0------0h2-0---------------------|
E|----------------------|--------------------------------------------|



G|--------------------------|----------------------------------------|
D|--------5------------5----|----------------------------------------|
A|--------------------------|-------------x-4-4--x-7--4--------------|
E|--3---3-----3-3--3-3------|--5---x-7-7-----------------------------|



Interlude

G|--------------------|----------------------------------------------|
D|--------------------|----------------------------------------------|
A|--5--------4--------|--2-------------------------------------------|
E|--------------------|-----------3----5-----------------------------|



G|-------------------------|-----------------------------------------|
D|--------5----------5-----|------x-9p7-------------7----------------|
A|-------------------------|--------------------7h9---9--------------|
E|--3---3-----3-3--------3-|--5-----------7--9-----------------------|



Bridge ("And the weather´s looking fine...")

G|-----------------------|-------------------------------------------|
D|-----------------------|-------------------------------------------|
A|--5----5---x-4----4----|--2----2---x-0----0--2-0-------------------|
E|-----------------------|-------------------------------------------|



G|-------------------------|-----------------------------------------|
D|-------5------------5----|---------7--x-7-7h9-5h7-4h5--------------|
A|-------------------------|----------------------------7h9----------|
E|--3--------3-3--3-3------|--5--5-5---------------------------------|



G|----------------6----|---------------------------------------------|
D|---------------------|---------------------------------------------|
A|--5--------4---------|--2--------0----0--0h2-0---------------------|
E|---------------------|---------------------------------------------|



G|---------------------------|-------9----11p9-----------------------|
D|--------5------------5---7-|--9/11---11------11-9-----9/11\\9-7-----|
A|---------------------------|----------------------7h9----------9-7-|
E|--3---3-----3-3--3-3-------|---------------------------------------|




Chorus ("I said...)

G|------------------------|------------------------------------------|
D|------------------------|------------------------------------------|
A|--5----5----4----4--4-4-|--2----2----0----0--0h2-0-----------------|
E|------------------------|------------------------------------------|



G|--------------------------|-------------------14-------------------|
D|--------5-----------5-----|---------7------------14----------------|
A|--------------------------|-----------x-14/16--------------4-------|
E|--3---3-----3-3---3----3/-|--5--5-5------------------12\\7----------|



G|---------------------|---------------------------------------------|
D|---------------------|---------------------------------------------|
A|--5--------4----4----|--2----2----0----0--0h2-0--------------------|
E|---------------------|---------------------------------------------|



G|------------------------|------------------------------------------|
D|--------5----------5----|------7-7-------7-9/11\\9------------------|
A|------------------------|------------7h9-----------7---------------|
E|--3---3------3---3------|--5---------------------------------------|



G|---------------------|---------------------------------------------|
D|---------------------|---------------------------------------------|
A|--5--------4----4----|--2----2----0----0--0h2-0--------------------|
E|---------------------|---------------------------------------------|




G|------------------------|-------9----11-9--------------------------|
D|--------5----------5----|--9/11---11------11-9-----9/11\\9----------|
A|------------------------|----------------------7h9---------9-7-----|
E|--3---3------3---3------|------------------------------------------|



G|----------------------|--------------------------------------------|
D|----------------------|--------------------------------------------|
A|--5----5----4----4----|--2----2----0----0--0h2-0-------------------|
E|----------------------|--------------------------------------------|



G|------------------------|------------------------------------------|
D|--------5--------5-5----|------------------------------------------|
A|------------------------|----------------7---9/12-9-7--------------|
E|--3---3------3----------|--5--5-5-7--9-----------------------------|



G|-----------------------|-------------------------------------------|
D|-----------------------|-------------------------------------------|
A|--5----5--5--4----4----|--2----2----0----0-------------------------|
E|-----------------------|--------------------5/7\\5------------------|



G|-------------------------|-----------------------------------------|
D|--------5---5-------5----|---------7----7h9-5h7-4h5----------------|
A|-------------------------|--------------------------7h9------------|
E|--3---3-------3---3------|--5-5--5---------------------------------|
                                                           (fade out)
  development and support by
dmitry ivanov