rock
 
|tablatures   |lyrics   |discussion forums   |more tabs @ XGuitar.com

Ozzy Osbourne tabs

Gets Me Through bass tab

Ozzy Osbourne
"Gets Me Through"
Down to Earth
Bass Tab
Tuning: EADG
b=Bend h=hammer /=slide


Intro (After piano part)
-----------------------------------------------------------
----------------------------------------------------0h2----
-----------------------------------------------0h2---------
-0-0---0-2b--0--0--2b--0--0--0-0--0-2b--0-0-0--------------

Verse/chorus
-------------------------------------------------------
-------------------------------------------------------
-------------------------------------------------------
-0-0--0-3---0---0-3--0-0-0-0--0-3--0-0-3---0--0--------

bridge
---------------------|--------------------
--2------4--------5--|---2------4-----5---
---------------------|--------------------
---------------------|--------------------

----------------|---------------------
--------5----4--|--------5--4---------
-1/3------------|--1/3----------------
----------------|---------------------

guitar solo
----------------------------------|-----------------------------------------
----------------------------------|-----------------------------------------
-7------7-7-----7-7-----7-7-----7-|-7-----7-7-----7-10-10-10-10-10-10-10-10-
---0-0------0-0-----0-0-----0-0---|---0-0-----0-0---------------------------

-------------------------------|--------------------------------------------
-------------------------------|--------------------------------------------
-3-3-3--3-3-3-3-3--3-3-3-3-3-3-|--3-3-3--3-3--3-3-3-10-10-10-10-10-10-10-10-
-------------------------------|--------------------------------------------

----------------------------------|-----------------------------------------
----------------------------------|-----------------------------------------
-7------7-7-----7-7-----7-7-----7-|-7-----7-7-----7-10-10-10-10-10-10-10-10-
---0-0------0-0-----0-0-----0-0---|---0-0-----0-0---------------------------

-------------------------------|---------------------------------------
-------------------------------|---------------------------------------
-3-3-3--3-3-3-3-3--3-3-3-3-3-3-|--3-3-3--3-3--3-3-3-2-2-2--2-5---5-5-5-
-------------------------------|---------------------------------------

--------------------------|--------------------------
--------------------------|--------------------------
--------------------------|--------------------------
-5--0-4--0---3-----3------|-5---4-3--3-3-3-3-3-3-3-3-

-------------------------------------
-------------------------------------
-------------------------------------
-5----4----3----2--------------------

outro
---------------------------|-------------------
---------------------------|-------------------
---------------------------|--2-----5--------5-
-0-0---0-3---0--0-3---0-0--|-------------------

that's it!
  development and support by
dmitry ivanov