rock
 
|tablatures   |lyrics   |discussion forums   |more tabs @ XGuitar.com

Ozzy Osbourne tabs

Facing Hell bass tab

Ozzy Osbourne - Facing Hell
Album: Down to Earth
Allan_Ibanez@hotmail.com

Drop D Tuning

Intro/Chorus

E -----------------------------------------------------------------
G -----------------------------------------------------------------
A  ----------------------------------5--5--5--5---------------------
D -0--0--6--5--3--0--0--0--5--0--0-------------0--0--6--5--3--0--0-
B------------------------------------------------------------------
 x2
E -----------------------------------------------------------------
G -----------------------------------------------------------------
A -----------------------------------------------------------------
D 0--5--0--5--6--0--8----------------------------------------------
B -----------------------------------------------------------------

Verse 1

E -----------------------------------------------------------------
G -----------------------------------------------------------------
A -----------------------------------------------------------------
D -0--0--0--0--0--0--0--0--0--0--0--0--0--0--0--0--0--0--0--0--0--0
B -----------------------------------------------------------------

E -----------------------------------------------------------------
G -----------------------------------------------------------------
A -----------------------------------------------------------------
D -0--0--0--0--0--0--0--0--0--0------------------------------------
B -----------------------------------------------------------------

Verse 2

E -----------------------------------------------------------------
G -----------------------------------------------------------------
A -----------------------------------------------------------------
D -0--0--0--0--0--0--0--0--1--1--1--1--1--1--1--1------------------
B -------------------------------------------------1--1--1--1--1--1
 x4
E -----------------------------------------------------------------
G -----------------------------------------------------------------  A -----------------------------------------------------------------
D -------0--0--0--0--0--0--0--0------------------------------------
B -1--1------------------------------------------------------------

Chorus

E -----------------------------------------------------------------
G -----------------------------------------------------------------
A  ----------------------------------5--5--5--5---------------------
D -0--0--6--5--3--0--0--0--5--0--0-------------0--0--6--5--3--0--0-
B------------------------------------------------------------------
 x2
E -----------------------------------------------------------------
G -----------------------------------------------------------------
A -----------------------------------------------------------------
D 0--5--0--5--6--0--8----------------------------------------------
B -----------------------------------------------------------------




Verse 1

E -----------------------------------------------------------------
G -----------------------------------------------------------------
A -----------------------------------------------------------------
D -0--0--0--0--0--0--0--0--0--0--0--0--0--0--0--0--0--0--0--0--0--0
B -----------------------------------------------------------------

E -----------------------------------------------------------------
G -----------------------------------------------------------------
A -----------------------------------------------------------------
D -0--0--0--0--0--0--0--0--0--0------------------------------------
B -----------------------------------------------------------------

Verse 2

E -----------------------------------------------------------------
G -----------------------------------------------------------------
A -----------------------------------------------------------------
D -0--0--0--0--0--0--0--0--1--1--1--1--1--1--1--1------------------
B -------------------------------------------------1--1--1--1--1--1
 x4
E -----------------------------------------------------------------
G -----------------------------------------------------------------  A -----------------------------------------------------------------
D -------0--0--0--0--0--0--0--0------------------------------------
B -1--1------------------------------------------------------------

Chorus

E -----------------------------------------------------------------
G -----------------------------------------------------------------
A  ----------------------------------5--5--5--5---------------------
D -0--0--6--5--3--0--0--0--5--0--0-------------0--0--6--5--3--0--0-
B------------------------------------------------------------------
 x2
E -----------------------------------------------------------------
G -----------------------------------------------------------------
A -----------------------------------------------------------------
D 0--5--0--5--6--0--8----------------------------------------------
B -----------------------------------------------------------------



Chorus Start

E -----------------------------------------------------------------
G -----------------------------------------------------------------
A -5--5--5--3--0---------------------------------------------------
D ----------------0------------------------------------------------
B -----------------------------------------------------------------

E -----------------------------------------------------------------
G -----------------------------------------------------------------
A -----------------------------------------------------------------x2
D -0--0--0--6--0--6--0--0--0--5--0---------------------------------
B -----------------------------------------------------------------








Verse 2

E -----------------------------------------------------------------
G -----------------------------------------------------------------
A -----------------------------------------------------------------
D -0--0--0--0--0--0--0--0--1--1--1--1--1--1--1--1------------------
B -------------------------------------------------1--1--1--1--1--1
 x4
E -----------------------------------------------------------------
G -----------------------------------------------------------------  A -----------------------------------------------------------------
D -------0--0--0--0--0--0--0--0------------------------------------
B -1--1------------------------------------------------------------

E -----------------------------------------------------------------
G -----------------------------------------------------------------
A -----------------------------------------------------------------x2
D -0--0--0--6--0--6--0--0--0--5--0---------------------------------
B -----------------------------------------------------------------

Verse 1

E -----------------------------------------------------------------
G -----------------------------------------------------------------
A -----------------------------------------------------------------
D -0--0--0--0--0--0--0--0--0--0--0--0--0--0--0--0--0--0--0--0--0--0
B -----------------------------------------------------------------

E -----------------------------------------------------------------
G -----------------------------------------------------------------
A -----------------------------------------------------------------
D -0--0--0--0--0--0--0--0--0--0------------------------------------
B -----------------------------------------------------------------

Verse 2

E -----------------------------------------------------------------
G -----------------------------------------------------------------
A -----------------------------------------------------------------
D -0--0--0--0--0--0--0--0--1--1--1--1--1--1--1--1------------------
B -------------------------------------------------1--1--1--1--1--1
 x4
E -----------------------------------------------------------------
G -----------------------------------------------------------------  A -----------------------------------------------------------------
D -------0--0--0--0--0--0--0--0------------------------------------
B -1--1------------------------------------------------------------

Chorus

E -----------------------------------------------------------------
G -----------------------------------------------------------------
A  ----------------------------------5--5--5--5---------------------
D -0--0--6--5--3--0--0--0--5--0--0-------------0--0--6--5--3--0--0-
B------------------------------------------------------------------
 x4
E -----------------------------------------------------------------
G -----------------------------------------------------------------
A -----------------------------------------------------------------
D 0--5--0--5--6--0--8----------------------------------------------
B -----------------------------------------------------------------




E -----------------------------------------------------------------
G -----------------------------------------------------------------
A -----------------------------------------------------------------x4
D -0--0--0--6--0--6--0--0--0--5--0---------------------------------
B -----------------------------------------------------------------
  development and support by
dmitry ivanov