rock
 
|tablatures   |lyrics   |discussion forums   |more tabs @ XGuitar.com

Ozzy Osbourne tabs

Dreamer guitar tab

From: Gustavo Paulino 
Artist:	Ozzy Osbourne
Album:	Down To Earth
Song:	Dreamer

Tabbed by Gustavo M. Paulino (gustavomansilia@bol.com.br)


Verses:		C#	Bbm	C#	Bbm	Ebm	G#

Chorus:		C#	Bbm	Fm	G#

Intrelude:	Ebm	G#

Solo (tabbed by barrett moore):

---------------------------------------------9-11-11^13-14-
-------------------------------7-9-9b^6~~~-9---------------
---6-8-8b-r-6-6b^3~~----6-8-8b-----------------------------
-6--------------------6------------------------------------
-----------------------------------------------------------
-----------------------------------------------------------

-16-18-----------------------------------------------------
-------17b--17b-17b----------------------------------------
---------------------16br-14h16b-13~~----------10-11-13-15-
--------------------------------------11-13-15-------------
-----------------------------------------------------------
-----------------------------------------------------------

----------11-12b~~~~~~~-
-11-13-14---------------
------------------------
------------------------
------------------------
------------------------
  development and support by
dmitry ivanov