rock
 
|tablatures   |lyrics   |discussion forums   |more tabs @ XGuitar.com

Ozzy Osbourne tabs

Dreamer bass tab

Song:Dreamer
Band:Ozzy Ozborne
Tab:Splitworld.net

Riff 1 (Intro - Outro)
G:|--------------------------------------------------
D:|--------------------------------------------------
A:|--4-----4-----------------------------------------
E:|-4-----4------------------------------------------
Riff 2 (Verse - Solo)
G:|--------------------------------------------------
D:|--------------------------------------------------
A:|-4--44------4--44------4--44-6-8-6----------------
E:|------6--66-------6--66------------4-4-4-4-4------
Riff 3 (Verse)
G:|--------------------------------------------------
D:|--------------------------------------------------
A:|-4-44-6------4-44-6-----4-4-44-4-6-8-6-6-4--------
E:|-------6-6-66------6-6666------------------44444--
Riff 4 (Chorus)
G:|--------------------------------------------------
D:|--------------------------------------------------
A:|-4--4--4--4---------------------------------------
E:|------------6-6-6-6-1-1-1-1-4-4-4-4---------------

These are just Key Notes not his Exsact playing if your Have Questions or Comments
Email Auzzyboi@hotmail.com
  development and support by
dmitry ivanov